» » »

Classics Of Love Bass tabs (ver.1)

Artists:  A B C D E F G H I J K L M N O P Q R S T U V W X Y Z # 

Classics Of Love Bass tabs (ver.1)

Common Rider
Rating:
0/5 (0 votes)

Hard to play? Try these video lessons and learn fast.
                Band: Common Rider
Abum: Last Wave Rockers (1999)
Tuning: Standart E A D G

Okay, so here's now the bass tab for that f**king genius song...
The bass line of Mass Giorgini is a bit tricky and hard
but still quiet easy...


1# Verse - Okay, so you wait till Jesse sang the first four
lines and than you kick in the bass. Just play the verse,
do a little break, and play that bit again...
 | Verse                                        4x |
G|------------|-----------|------------|-----------|
D|------------|-----------|------------|-----------|
A|-------9----|-----------|-------9----|-----------|
E|--77-7---7--|--0-7-0-9--|--77-7---7--|-----------|

Pre-Chorus
G|------------|-----------|------------|-----------|
D|------------|-----------|------------|-----------|
A|-7-7-7--777-|-----------|------------|-----------|
E|------------|-----------|------------|-----------|

Chorus - The chorus may be a bit tricky and hard to figure
out, but just listen to the chorus and it should be easy...
 | Chorus Pt.#1
G|-------------------------------------------------|
D|-------------------------------------------------|
A|-------------7-77-7-77-6-------------------------|
E|--7-77-7-77---------------7-77-7-77-7-77---------|
 | Chorus Pt.#2
G|-------------------------------------------------|
D|-------------------------------------------------|
A|------------6-7-6-7-6-7-6------------------------|
E|--56-7-77-----------------7-7-7-77777------------|

#2 Verse - Okay, so after the chorus you play that little
tricky bit at the beginning followed by the regular verse...
 | Verse Pt.#1                                  1x |
G|------------------------|------------------------|
D|--------6-7~-7-8~-9-----|-----6-7~-7-8~----------|
A|------------------------|------------------------|
E|------------------------|------------------------|
 | Verse Pt.#2                                  3x |
G|------------|-----------|------------|-----------|
D|------------|-----------|------------|-----------|
A|-------9----|-----------|-------9----|-----------|
E|--77-7---7--|--0-7-0-9--|--77-7---7--|-----------|

Interlude - f**king easy.. after it play a little
'bass solo' during the interlude which is kinda tricky...
 | Interlude Pt.#1                              1x |
G|-----------------------|-------------------------|
D|-----------------------|-------------------------|
A|--7-7-7-----9-9-9------|---7-7-7-----9-9-9-------|
E|--------7-7-------7-7--|---------7-7-------7-7---|
 | Interlude Pt.#2                              1x |
G|-------------------------------------------------|
D|-----------------------7-9-9-9-9-11-9------------|
A|--7-7-7----------6-8/9--------------------9~~----|
E|--------7-7--5-7----------------------7~---------|
 | Interlude Pt.#3                                 |
G|------------|----------|-------------------------|
D|-----------------------|-------------------------|
A|----------3/9~~--------|-----------3/9~~---------|
E|-----------------------|-------------------------|

Outro 
G|-------------------------------------------------|
D|-------------------------------------------------|
A|----------7~~------------------------------------|
E|---------------------------7~--------------------|

Order: #1.Verse - Pre-Chorus - Chorus - #2.Verse
2x Pre-Chorus - Chorus - Interlude - 2x Chorus - Outro

It's kinda easy to play that song after some practice...
You just have to figure out the first bit of the second
verse and the bass solo of the interlude which are tricky
and maybe the chorus too...

You just have to listen very good to the song and you figure it our.. 

If you have any questions or just wanna talk about Common Rider or other sh*t:
            
Hard to play? Try these video lessons and learn fast. | Correct




comments powered by Disqus
↑ Back to top | Tablatures and chords are parodies/interpretations of the original songs. You may use it for private study, scholarship, research or language learning purposes only