>
 >
Brick House

Brick House Bass Tabs

Commodores - Brick House chords, tabs, tablatures, lyrics

Guitar lessons | Add/correct | Request | Top 50 tabs Artists:  A B C D E F G H I J K L M N O P Q R S T U V W X Y Z 0-9

Brick House Bass Tabs – Commodores

CD, Sheet music, Poster

Do you like Brick House? Share with your friends now
Bass TabsBass Tabs v2ChordsTabsTabs v2Tabs v3
Commodores - Brick House
Standard Tuning: EADG
Tabbey By: RTBM

Intro, Bass + Drums
G|-----------------------------------------/12--|
D|--------7----------5h7-------5h7--------------|
A|--3-5-----3-5-6h7-3----3-5------3-5-6h7-3-----|
E|-5---345--------------5---345-----------------|


Intro, Bass + Drums + horns
G|-------------------------------4h5-4----------|
D|--------5h7----------7-------7------7-5h7-----|
A|--3-5-------3-5-6h7-3--3-5--------------------|
E|-5---345--------------5---345-----------------|



Verse 3x
G|-------------------------------------------|
D|--------5h7---------7-------7---------5h7--|
A|--3-5------3-5-6h7-3--3-5----3-5-6h7-3-----|
E|-5---345-------------5---345---------------|


Chorus
G|-------------------------------55-4-5-4--|
D|-----------------------------------------|
A|-----------------------------------------|
E|-5-3-5-3-5-3-5-0-345-3-5-3-5-3-----------|

G|-----------------------------------------|
D|-----------------------------------------|
A|-----------------------------------------|
E|-5-3-5-3-5-0-345-3-5-3-5-3-5-0-345-------|


Verse 3x
G|-------------------------------------------|
D|--------5h7---------7-------7---------5h7--|
A|--3-5------3-5-6h7-3--3-5----3-5-6h7-3-----|
E|-5---345-------------5---345---------------|


Chorus
G|-------------------------------55-4-5-4--|
D|-----------------------------------------|
A|-----------------------------------------|
E|-5-3-5-3-5-3-5-0-345-3-5-3-5-3-----------|

G|-----------------------------------------|
D|-----------------------------------------|
A|-----------------------------------------|
E|3-5-3-5-3-5-0-345-3-5-3-5-3-5-0-345------|



Verse 2x
G|-------------------------------------------|
D|--------5h7---------7-------7---------5h7--|
A|--3-5------3-5-6h7-3--3-5----3-5-6h7-3-----|
E|-5---345-------------5---345---------------|



Bridge
G|------5------------------5p4-----5p4--------|
D|---555-7---5-5p4------555---7---5---7-5p4---|
A|----------------7-3----------------------7--|
E|-55------55---------55--------55------------|


G|------4h5\2-----------------5-----5p4-5p4---|
D|---555--------5-5p4------555-7---5---7---7--|
A|-------------------7-3----------------------|
E|-55---------55---------55------55-----------|



Verse till end, but with 4 bars rest just before end!
G|-------------------------------------------|
D|--------5h7---------7-------7---------5h7--|
A|--3-5------3-5-6h7-3--3-5----3-5-6h7-3-----|
E|-5---345-------------5---345---------------|

                         





Comments


Popular Commodores tabs & chords
Easy Chords
Easy 2 Chords
Night Shift Chords
Night Shift 1 Chords
Sail On 4 Chords
Three Times A Lady Chords
Brick House 1 Tabs
Easy Tabs
Easy Ukulele
Sail On 2 Ukulele


Song lyrics



↑ Back to top | Tablatures and chords are parodies/interpretations of the original songs. You may use it for private study, scholarship, research or language learning purposes only
© 2014 AZChords.com Contact us | Privacy policy | DMCA | Add/correct tabs | Request tabs | Top 50 tabs