» » »

Combuster, Summer Girl Bass tabs (ver.2)

Artists:  A B C D E F G H I J K L M N O P Q R S T U V W X Y Z # 

Summer Girl Bass tabs (ver.2)

Combuster Tabs
 Rating:
4/5 (4 votes)
Summer Girl lessons Tabs too difficult? Try these video lessons and learn fast
1
                Bassist: Nate Dawg

This is an awesome song.  Everybody likes this one.  I like to pick this one because it needs a strong and sharp tone.

Intro:
G:-----------------------------------------------------------------
D:--777------------------------------------------------------------
A:-----777----------------------------------------555-4--0r---555-7
E:---------777-555-4444--222-444-555-7777777-0r--------------------

Verse:
G:-------------------------------------------------------------
D:-------------------------------------------------------------
A:--0000000000000000------------------5555555555555555-77777777      x2
E:-------------------2222222222222222--------------------------

Right after the second time of doing the verse, do this:
G:-------------------
D:-------7h9-9/11-9/7
A:--7h9--------------
E:-------------------

Chorus:
G:----9-767--9-767--9-767-777-666-44
D:--7------6------4-----------------
A:----------------------------------     x2
E:----------------------------------

After the 1st Chorus, do this:
G:--------------------------
D:--------------------------
A:-------555-4----0r---555-7
E:--0r----------------------

Outro:
G:------------------------
D:--777-------------------
A:------777-555-444-2222-0
E:------------------------

The song goes:

Intro
Verse(x2)
Chorus(x2)
Verse(x2)
Chorus(x2)
Intro
Chorus(x4)
Outro
            
Submit corrections

comments powered by Disqus
↑ Back to top | Combuster Bass for Summer Girl. Lyrics for acoustic guitar and electric guitar. 1 Tablatures and chords are parodies/interpretations of the original songs. You may use it for private study, scholarship, research or language learning purposes only