» » »

Head Rush Bass tabs (ver.1)

Artists:  A B C D E F G H I J K L M N O P Q R S T U V W X Y Z # 

Head Rush Bass tabs (ver.1)

Combuster
Rating:
0/5 (0 votes)

Hard to play? Try these video lessons and learn fast.
                Bassist: Nate Dawg
Genre: Punk

This is a good finger-picking song.  Sounds really punk when played 
with all other instruments.

Intro:

G:----------------------------------
D:----------------------------------
A:-----3-------5---2---7---3-3-3-555
E:-3-------5------------------------


Verse:

G:--------------------------------
D:--------------------------------
A:---------3-33-33---------5-55-55
E:-3-33-33---------5-55-55--------


Chorus:

G:----------------------------------------------------------------
D:----------------------------------------------------------------
A:---------3-33-33---------5-55-55-2-22-22-7-77-77-3-33-33-5-55-55
E:-3-33-33---------5-55-55----------------------------------------


Look out for Combuster's demo and first CD.
            
Hard to play? Try these video lessons and learn fast. | Correct




comments powered by Disqus
↑ Back to top | Tablatures and chords are parodies/interpretations of the original songs. You may use it for private study, scholarship, research or language learning purposes only