» » »

Little Red Rodeo Tabs (ver.1)

Artists:  A B C D E F G H I J K L M N O P Q R S T U V W X Y Z # 

Little Red Rodeo Tabs (ver.1)

Collin Raye
Rating:
0/5 (0 votes)

Tabs too difficult? Try these video lessons and learn fast.
                E-19-19\-----------------------12------
B---------15-17b--12----10--12----12---
G--------------------------------------
D--------------------------------------
A--------------------------------------
E--------------------------------------

E-----------------------------------------
B-------------------------7-8---12---10---
G-7/9-----9-7-----------------------------
D-7/9-----------9b-7----------------------
A-----------------------------------------
E-----------------------------------------

- Geetar
            
Tabs too difficult? Try these video lessons and learn fast.




comments powered by Disqus
↑ Back to top | Tablatures and chords are parodies/interpretations of the original songs. You may use it for private study, scholarship, research or language learning purposes only