>
 >
Why Pt 2

Why Pt 2 Guitar Tabs

Collective Soul - Why Pt 2 chords, tabs, tablatures, lyrics

Guitar lessons | Add/correct | Request | Top 50 tabs Artists:  A B C D E F G H I J K L M N O P Q R S T U V W X Y Z 0-9

Why Pt 2 Guitar Tabs – Collective Soul

CD, Sheet music, Poster

Do you like Why Pt 2? Share with your friends now
Tabs
Collective Soul
Why Pt. 2

Tuning: Drop D, down 1/2 step
(Db,Ab,Db,Gb,Bb,Eb)


Inrto/Verse:
eb----------------------------------------------
Bb----------------------------------------------
Gb---2-2-2----2-2-2-----------------------------
Db---0-0-0----0-0-0-----------------------------
Ab---0-0-0----0-0-0-----------------------------
Db---0-0-0----0-0-0-----------------------------

As I crawl   beneath....
eb--------0--0---0------------------------------
Bb--------0--0---0------------------------------
Gb---4-4--4--4---4------------------------------
Db---4-4----------------------------------------
Ab---2-2----------------------------------------
Db----------------------------------------------

   torture      you adore
eb----------------------------------------------
Bb----------------------------------------------
Gb--------7--7---7------------------------------
Db-5------5--5---5------------------------------
Ab-5------5--5---5------------------------------
Db-5--------------------------------------------

Chorus:
Gtr.2
eb------------19-------+----19-15-15-19--15-----
Bb----15-17-19----17-19.+--15-----------15-------
Gb--16----------16-----+16----------------------
Db---------------------+------------------------
Ab---------------------+------------------------
Db---------------------+------------------------
Gtr.1 (w/wah-wah)
eb---------------------+------------------------
Bb---------------------+------------------------
Gb4--4--4--4--4--4--4-4+7--7--7--7--7--7--7--7--
Db4--4--4--4--4--4--4-4+5--5--5--5--5--5--5--5--
Ab2--2--2--2--2--2--2-2+5--5--5--5--5--5--5--5--
Db---------------------+5--5--5--5--5--5--5--5--
Gtr.2
eb--------14-17----14--+--------14-17------14----
Bb---15-15-------15----+--15-15----------17------
Gb-14----------14------+14------------14---------
Db---------------------+-------------------------
Ab---------------------+-------------------------
Db---------------------+-------------------------
Gtr.1
eb3-3--3--2--3--3--3--3+3--3--3--3--3--3--3--3---
Bb2-2--2--2--2--2--2--2+2--2--2--2--2--2--2--2---
Gb3-3--3--3--3--3--3--3+3--3--3--3--3--3--3--3---
Db0-0--0--0--0--0--0--0+0--0--0--0--0--0--0--0---
Ab0-0--0--0--0--0--0--0+0--0--0--0--0--0--0--0---
Db0-0--0--0--0--0--0--0+0--0--0--0--0--0--0--0---

Solo:
Gtr.1 plays chorus(without wah) about 3 1/2 times
Gtr.2 (w/wah-wah)
eb-----------9-10-10x--+----------9-10-10x-------
Bb-------------------10+------------------10-----
Gb---------11----------+--------11---------------
Db-11-12-12------------+11-12-12-----------------
Ab---------------------+-------------------------
Db---------------------+-------------------------

eb-----------9-10-10x--+-----------------10------
Bb-------------------10+-------------------------
Gb---------11----------+--------11x-x-x----------
Db-11-12-12------------+11-12-12-----------------
Ab---------------------+-------------------------
Db---------------------+-------------------------

eb-----------9-12-12x--+----------9-10-10x-------
Bb-------------------10+------------------10-----
Gb---------11----------+--------11---------------
Db-11-12-12------------+11-12-12-----------------
Ab---------------------+-------------------------
Db---------------------+-------------------------

eb-9-10---9-10---9-10--+---9-10--12-12-----------
Bb-----10-----10-------+10-----10-----10-10-10---
Gb---------------------+-------------------------
Db---------------------+-------------------------
Ab---------------------+-------------------------
Db---------------------+-------------------------
Play 16 times each (sixteenth notes)
eb-14-14-14-14-+-15-15-15-15-+-17-17-17-17-------
Bb-12-12-12-12-+-12-12-12-12-+-15-15-15-15-------
Gb-------------+-------------+-------------------
Db-------------+-------------+-------------------
Ab-------------+-------------+-------------------
Db-------------+-------------+-------------------
Back to normal eighth notes
eb-------------+------+------+-13b--+---------------
Bb-------------+------+-14b--+------+---------------
Gb-14-14-14-14-+-14b--+------+------+---------------
Db-12-12-12-12-+------+------+------+---------------
Ab-------------+------+------+------+---------------
Db-------------+------+------+------+---------------

For the interlude and the outro, play a variation 
of the intro





Comments


Popular Collective Soul tabs & chords
No More No Less 2 Bass Tabs
How Do You Love 1 Chords
When The Water Falls 1 Chords
Goodnight Good Guy Tabs
Maybe Tabs
She Said 1 Tabs
Shine 8 Tabs
When The Water Falls 1 Tabs
Enegry Ukulele
The World I Know 2 Ukulele


Song lyrics



↑ Back to top | Tablatures and chords are parodies/interpretations of the original songs. You may use it for private study, scholarship, research or language learning purposes only
© 2014 AZChords.com Contact us | Privacy policy | DMCA | Add/correct tabs | Request tabs | Top 50 tabs