» » »

Next Homecoming Tabs (ver.1)

Artists:  A B C D E F G H I J K L M N O P Q R S T U V W X Y Z # 

Next Homecoming Tabs (ver.1)

Collective Soul
Rating:
0/5 (0 votes)

Hard to play? Try these video lessons and learn fast.
                -------------------------------------------------------------------------------
                             Next Homecoming – Collective Soul
-------------------------------------------------------------------------------

Tuning: Db Ab Db Gb Bb eb

Intro
eb|---------------------------------------------------------------------------|
Bb|---------------------------------------------------------------------------|
Gb|---------------------------------------------------------------------------|
Db|-7p5-----------------------------------------------------------------------|
Ab|-----7-5-7---------7p5-x-x-------------------------------------------------|
Db|-----------5h7-x-x---------------------------------------------------------|

Verse 
eb|---------------------------------------------------------------------------|
Bb|---------------------------------------------------------------------------|
Gb|---------------------------------------------------------------------------|
Db|--5s7-7-7--x-x-x-x-x-x-x-x-x-x-x-x-----------------------------------------|
Ab|--5s7-7-7--x-x-x-x-x-x-x-x-x-x-x-x-----------------------------------------|
Db|--5s7-7-7--x-x-x-x-x-x-x-x-x-x-x-x-----------------------------------------|

Chorus
eb|--------------------------------------------------------------------------|
Bb|--------------------------------------------------------------------------|
Gb|-10---5------x-x-7--x-x--7--x-x-9--x--10----------------------------------|
Db|-10---5---5--x-x-7--x-x--7--x-x-9--x--10----------------------------------|
Ab|-8----3---5--x-x-5--x-x--5--x-x-7--x--8-----------------------------------|
Db|----------5---------------------------------------------------------------|

eb|--------------------------------------------------------------------------|
Bb|--------------------------------------------------------------------------|
Gb|-10---5------x-x-7--x-x--7--x-x-7-7---------------------------------------|
Db|-10---5---5--x-x-7--x-x--7--x-x-7-7---------------------------------------|
Ab|-8----3---5--x-x-5--x-x--5--x-x-5-5---------------------------------------|
Db|----------5---------------------------------------------------------------|

Fill after first chorus w/ wah
eb|---------------------------------------------------------------------------|
Bb|---------------------------------------------------------------------------|
Gb|-14p12-14p12-14p12-14p12-14p12-14p12-14p12-14p12-14p12-14p12-14p12-14p12---|
Db|---------------------------------------------------------------------------|
Ab|---------------------------------------------------------------------------|
Db|---------------------------------------------------------------------------|

eb|---------------------------------------------------------------------------|
Bb|---------------------------------------------------------------------------|
Gb|-12p12-14p12-14p12-14p12---------------------------------------------------|
Db|---------------------------------------------------------------------------|
Ab|---------------------------------------------------------------------------|
Db|---------------------------------------------------------------------------|

Break         (slowly bend)
eb|---------------------------------------------------------------------------|
Bb|---------------------------------------------------------------------------|
Gb|-12-12-12-12-12-12-12-12-12-12-12-12-12-12-12-12---------------------------|
Db|---------------------------------------------------------------------------|
Ab|---------------------------------------------------------------------------|
Db|---------------------------------------------------------------------------|
      
eb|---------------------------------------------------------------------------|
Bb|---------------------------------------------------------------------------|
Gb|---------------------------------------------------------------------------|
Db|-0-------------------------------------------------------------------------|
Ab|-0-------------------------------------------------------------------------|
Db|-0-------------------------------------------------------------------------|
figure out the rhythm, lots of palm muting

eb|---------------------------------------------------------------------------|
Bb|---------------------------------------------------------------------------|
Gb|-12-12-12-12-12-12-12-12-12-12-12-12-12-12-12-12---------------------------|
Db|---------------------------------------------------------------------------|
Ab|---------------------------------------------------------------------------|
Db|---------------------------------------------------------------------------|
      
eb|---------------------------------------------------------------------------|
Bb|---------------------------------------------------------------------------|
Gb|---------------------------------------------------------------------------|
Db|-0-------------------------------------------------------------------------|
Ab|-0-------------------------------------------------------------------------|
Db|-0-------------------------------------------------------------------------|
    palm mute (three measures worth)

Riff after break
eb|---------------------------------------------------------------------------|
Bb|---------------------------------------------------------------------------|
Gb|---------------------------------------------------------------------------|
Db|---------------------------------------------------------------------------|
Ab|-7p5-----------------7-----------------------------------------------------|
Db|-----7-5-5-5-5-5-5h7---5---------------------------------------------------|

eb|---------------------------------------------------------------------------|
Bb|---------------------------------------------------------------------------|
Gb|-7~---x-x—7~----x-x—7~-----7~----------------------------------------------|
Db|-7~---x-x—7~----x-x—7~-----7~----------------------------------------------|
Ab|-5~---x-x—5~----x-x—5~-----5~----------------------------------------------|
Db|---------------------------------------------------------------------------|
           (hold these chords out)
            
Hard to play? Try these video lessons and learn fast. | Correct




comments powered by Disqus
↑ Back to top | Tablatures and chords are parodies/interpretations of the original songs. You may use it for private study, scholarship, research or language learning purposes only