» » »

Collective Soul, New Vibration Tabs (ver.1)

Artists:  A B C D E F G H I J K L M N O P Q R S T U V W X Y Z # 

New Vibration Tabs (ver.1)

Collective Soul Tabs
 Rating:
4/5 (4 votes)
New Vibration lessons Tabs too difficult? Try these video lessons and learn fast
1
                
Its been a long while since I tabbed something... so lets get going.

Tuning: Drop D (D A D G B e)

Intro:

e|-----|
B|-----|
G|-----|
D|-----|
A|-----|
D|-/7\-|
->You can slide up to the 7th fret and back down again, if you insist on mimicking the 
to that degree :|

Main Riff:

e|--------------------------------------|
B|--------------------------------------|
G|----------------------------x---x---x-|
D|----------------------------x---x---x-|
A|-----0---------------0------x---x---x-|
D|-3h4---4-2p0-2p0-3h4---4-2-*3*-*3*-*3*|
(Those *3*'s represent harmonics)

Verse:

e|---------|
B|---------|
G|---------|
D|-0-0-0---| X2
A|-0-0-0---|
D|-0-0-0---|

Main riff plays again, then the Verse, followed by the main riff once more.

Chorus:

Guitar 1:
e|--------------------|
B|--------------------|
G|-----------4--------|
D|-7----7----4----5---| X2
A|-5----4----2----5---|
D|-0----0---------5---|
(This is the way I saw Joel play it live)
The rhythm isn't shown, but its pretty basic if you listen to the song.

Guitar 2:
e|-10---10---10---10--|
B|-7----8----10---12--|
G|-7----9----11---14--|
D|--------------------| X2
A|--------------------|
D|--------------------|

Guitar 2(On 3rd + 4th time around on the second/third chorus):
e|-------------------------------------------------------------------|
B|-------------------------------------------------------------------|
G|-11--11--11-11-11-12-14--14--14-14---11--11--11-11-11-11-9--9--9-9-|
D|-------------------------------------------------------------------|
A|-9---9---9--9--9--10-12--12--12-12---9---9---9--9--9--9--7--7--7-7-|
E|-------------------------------------------------------------------|

The main riff is then played, followed by the verse, main riff, verse, main riff, and 
Chorus.

Solo:

e|-----------------------------------|
B|-----------------------------------|
G|-/4-2-2~--/7-6-6~--12-11-11-9-11~--|
D|-----------------------------------|
A|-----------------------------------|
D|-----------------------------------|

e|-----------------------------------------|
B|-----------------------------------------|
G|-/4-2-2~--/7-6-6h7-7h9-9h11-11h12-12h14~-|
D|-----------------------------------------|
A|-----------------------------------------|
D|-----------------------------------------|

e|-10----------------------10----------------------|
B|---12-10h12p10-------------12-10h12p10-----------|
G|--------------11h12p11----------------11h12p11---|
D|-------------------------------------------------|
A|-------------------------------------------------|
D|-------------------------------------------------|

e|-14----------------------14----------------------|
B|---15-14h15p14-------------15-14h15p14-----------|
G|--------------14h16p14----------------14h16p14---|
D|-------------------------------------------------|
A|-------------------------------------------------|
D|-------------------------------------------------|

e|-7--9--10--12~---14--15--17~--|
B|------------------------------|
G|------------------------------|
D|------------------------------|
A|------------------------------|
D|------------------------------|

The main riff is then played, followed by the chorus. The outro is basically the chorus; 
Joel plays a lick or two similar to the end of the solo. I'm unsure of what it is at 
moment. :/

None-the-less, enjoy New Vibration. :D
            
Submit corrections

comments powered by Disqus
↑ Back to top | Collective Soul Tabs for New Vibration. Lyrics for acoustic guitar and electric guitar. 1 Tablatures and chords are parodies/interpretations of the original songs. You may use it for private study, scholarship, research or language learning purposes only