» » »

Heavy Bass tabs (ver.1)

Artists:  A B C D E F G H I J K L M N O P Q R S T U V W X Y Z # 

Heavy Bass tabs (ver.1)

Collective Soul
Rating:
0/5 (0 votes)

Hard to play? Try these video lessons and learn fast.
                                                    

Guitar plays a bit, then bass.

(0:04) Intro
Gb|--------------------------------|
Db|--------------------------------|  x 4
Ab|5h7-7-7-7-7-7-5h7-7-7-7-5h7-7-7-| 
Eb|--------------------------------|

(WICKED GUITAR RIFF BEGINS)

(0:13) Intro
Gb|--------------------------------|     
Db|--------------------------------|  x 3
Ab|--------5-0-------------0h1-0---|     
Eb|0-0-0-0-----3-0---0h3h5---------|     

(0:20) Intro
Gb|---------------------|     
Db|---------------------|  
Ab|--------5-0----------|     
Eb|0-0-0-0-----3-0------|     

(0:22) Verse 1
Gb|-------------------------------------- -|
Db|-------------------------------------- -|  
Ab|-------------------------------------- -| 
Eb|3--3------3----3----3--3-----------3/15-|

(0:26) Verse 1
Gb|--------------------------------|     
Db|--------------------------------|  x 2
Ab|--------5-0-------------0h1-0---|     
Eb|0-0-0-0-----3-0---0h3h5---------|     

(0:31) Verse 1
Gb|-------------------------------------- -|
Db|-------------------------------------- -|  
Ab|-------------------------------------- -| 
Eb|3--3------3----3----3--3-----------3/15-|

(0:36) Verse 1
Gb|--------------------------------|     
Db|--------------------------------|  x 2
Ab|--------5-0-------------0h1-0---|     
Eb|0-0-0-0-----3-0---0h3h5---------|     

(0:40) Chorus 1
Gb|------------------------------------------------------------------------------------------------------|
Db|------------------------------------------------------------------------------------------------------|  
Ab|5--5--5--5-5-5--5--5--5-5---------------------------3--3--3--3-3-3--3--3--3-3-------------------------|
Eb|--------------------------5--5--5--5-5-5--5--5--5-5---------------------------3--3--3--3--2--2--2--2--|

(0:49) Chorus 1
Gb|------------------------------------------------------------------------------- --- --- -- -- -------------|
Db|------------------------------------------------------------------------------- --- --- -- -- -------------|  
Ab|5--5--5--5-5-5--5--5--5-5---------------------------3--3--3--3-3-3--3--3--3-3/10--10--10-10-10-9--9--9-9-9-|
Eb|--------------------------5--5--5--5-5-5--5--5--5-5---------------------------- --- --- -- -- -------------|

(0:58) Interlude
Gb|--------------------------------|     
Db|--------------------------------|  x 3
Ab|--------5-0-------------0h1-0---|     
Eb|0-0-0-0-----3-0---0h3h5---------|     

(1:05) Interlude
Gb|---------------------|     
Db|---------------------|  
Ab|--------5-0----------|     
Eb|0-0-0-0-----3-0------|     

(1:07) Verse 2
Gb|-------------------------------------- -|
Db|-------------------------------------- -|  
Ab|-------------------------------------- -| 
Eb|3--3------3----3----3--3-----------3/15-|

(1:11) Verse 2
Gb|--------------------------------|     
Db|--------------------------------|  x 2
Ab|--------5-0-------------0h1-0---|     
Eb|0-0-0-0-----3-0---0h3h5---------|     

(1:16) Verse 2
Gb|-------------------------------------- -|
Db|-------------------------------------- -|  
Ab|-------------------------------------- -| 
Eb|3--3------3----3----3--3-----------3/15-|

(1:20) Verse 2
Gb|--------------------------------|     
Db|--------------------------------|  x 2
Ab|--------5-0-------------0h1-0---|     
Eb|0-0-0-0-----3-0---0h3h5---------|     

(1:25) Chorus 2
Gb|------------------------------------------------------------------------------------------------|
Db|------------------------------------------------------------------------------------------------|  
Ab|5--5--5--5--5--5--5--5--------------------------3--3--3--3--3--3--3--3--------------------------|
Eb|------------------------5--5--5--5--5--5--5--5--------------------------3--3--3--3--2--2--2--2--|

(1:34) Chorus 2
Gb|------------------------------------------------------------------------------------------------|
Db|------------------------------------------------------------------------------------------------|  
Ab|5--5--5--5--5--5b-6-r5--------------------------3--3--3--3--3--3b-4-r3--------------------------|
Eb|------------------------5--5--5--5--5--5b-6-r5--------------------------3--3b-4-r3--2--2b-3-r2--|

(1:43) Chorus 2
Gb|------------------------------------------------------------------------------------------------|
Db|------------------------------------------------------------------------------------------------|  
Ab|5--5--5-----5-----5-----------------------------3--3--3-----3-----3-----------------------------|
Eb|---------5-----5-----5--5--5--5--0--5--0--5--0-----------3-----3-----3--3--3--3--0--2--2--2--0--|

(1:52) Chorus 2
Gb|------------------------------------------------------------------------------- --- --- -- -- -------------|
Db|------------------------------------------------------------------------------- --- --- -- -- -------------|  
Ab|5--5--5--5-5-5--5--5--5-5---------------------------3--3--3--3-3-3--3--3--3-3/10--10--10-10-10-9--9--9-9-9-|
Eb|--------------------------5--5--5--5-5-5--5--5--5-5---------------------------- --- --- -- -- -------------|

(2:01) Solo
Gb|--------------------------------|
Db|------------------------5-5-5-5-|  x 4
Ab|----7---7-----7---7-------------| 
Eb|0-0---0---0-0---0---0-0---------|

(2:10) Solo
Gb|------------------------------------------------|
Db|------------------------------------------------|  
Ab|------------------------------------------3--3--| 
Eb|3--3--0--3--3--3--0--3--3--3--0--3--3--3--------|

(2:14) Solo
Gb|--------------------------------|
Db|------------------------5-5-5-5-|  x 2
Ab|----7---7-----7---7-------------| 
Eb|0-0---0---0-0---0---0-0---------|

(2:19) Solo
Gb|------------------------------------------------|
Db|------------------------------------------------|  
Ab|----3h5p3----------3h5p3----------3h5p3---------| 
Eb|3h5-------5p3--3h5-------5p3--3h5-------5p3--3--|

(2:23) Solo
Gb|--------------------------------|
Db|------------------------5-5-5-5-|  x 2
Ab|----7---7-----7---7-------------| 
Eb|0-0---0---0-0---0---0-0---------|

(2:28) Chorus 3
Gb|------------------------------------------------------------------------------------------------|
Db|------------------------------------------------------------------------------------------------|  
Ab|5--5--5--5--5--5--5--5--------------------------3--3--3--3--3--3--3--3--------------------------|
Eb|------------------------5--5--5--5--5--5--5--5--------------------------3--3--3--3--2--2--2--2--|

(2:36) Chorus 3
Gb|------------------------------------------------------------------------------- --- --- -- -- -------------|
Db|------------------------------------------------------------------------------- --- --- -- -- -------------|  
Ab|5--5--5--5-5-5--5--5--5-5---------------------------3--3--3--3-3-3--3--3--3-3/10--10--10-10-10-9--9--9-9-9-|
Eb|--------------------------5--5--5--5-5-5--5--5--5-5---------------------------- --- --- -- -- -------------|

(2:45) Outro
Gb|--------------------------------|     
Db|--------------------------------|  x 3
Ab|--------5-0-------------0h1-0---|     
Eb|0-0-0-0-----3-0---0h3h5---------|     

(2:52) Outro
Gb|-------------------|     
Db|-------------------| 
Ab|--------5-0--------|     
Eb|0-0-0-0-----3-0----|     
            
Hard to play? Try these video lessons and learn fast. | Correct




comments powered by Disqus
↑ Back to top | Tablatures and chords are parodies/interpretations of the original songs. You may use it for private study, scholarship, research or language learning purposes only