>
 >
Gel 3

Gel 3 Bass Tabs

Collective Soul - Gel 3 chords, tabs, tablatures, lyrics

Guitar lessons | Add/correct | Request | Top 50 tabs Artists:  A B C D E F G H I J K L M N O P Q R S T U V W X Y Z 0-9

Gel 3 Bass Tabs – Collective Soul

CD, Sheet music, Poster

Do you like Gel 3? Share with your friends now
Bass TabsBass Tabs v2Bass Tabs v3Bass Tabs v4Ukulele
Bassist: Will Turpin
Tuning: Standard (E-A-D-G, low-to-high)

Performance Notes
~ = hold note
Will probably plays this with a pick; listen closely for note duration

Transcription

Verse (x6)
G|----------------|----------------|
D|----------------|--------2-3-2-0-|
A|2-2-----2-------|2-2-------------|
E|----------------|----------------|

Ending 1
G|----------------|----------------|
D|----------------|----------------|
A|0---------------|----------------|
E|----------------|------0-2-0-3-0-|

Verse (x2)

Ending 2
G|----------------|----------------|----------------|----------------|
D|----------------|----------------|----------------|----------------|
A|0---------------|----------------|----------------|----------------|
E|----------------|----------------|0-5-------------|--0-2-0-3-0-5-0-|

Chorus
G|----------------|----------------|----------------|----------------|
D|----------------|----------------|----------------|----------------|
A|------6-7-------|--6~----6~--6h7-|------6-7-------|----------------|
E|6-7---------6-7~|----7-----7-----|6-7---------6-7-|--7-7-7-7-7-7-7-|

G|----------------|----------------|----------------|----------------|
D|----------------|----------------|----------------|----------------|
A|------6-7-------|--6~----6~--6h7-|------6-7-------|----------------|
E|6-7---------6-7~|----7-----7-----|6-7---------6-7-|--7-7-7-7-7-7-7-|

Verse (x6)

Ending 1

Verse (x2)

Ending 2

Chorus

Interlude
                   .
G|----------------|----------------|----------------|----------------|
D|----------------|----------------|----------------|----------------|
A|----------------|----------------|----------------|----------------|
E|5~------3~------|5---5~--3~------|5~------3~------|5-0-2-0-3-0-5-0-|


Guitar Solo
G|----------------|----------------|----------------|----------------|
D|----------------|----------------|----------------|----------------|
A|2-2-2-2-2-2-2-0-|----------------|2-2-2-2-2-2-2-0-|--------5-5-3---|
E|----------------|0-0-0-0-0-0-0-0-|----------------|0-0-0-0---------|

Interlude

Chorus (x2)

Verse (x4)





Comments


Popular Collective Soul tabs & chords
Precious Declaration Bass Tabs
Adored Chords
Satellite 2 Chords
Bleed 1 Tabs
Dandy Tabs
December 6 Tabs
Heaven's Already Here 1 Tabs
Hollywood Tabs
Why Part 2 2 Tabs
She Does Ukulele


Song lyrics



↑ Back to top | Tablatures and chords are parodies/interpretations of the original songs. You may use it for private study, scholarship, research or language learning purposes only
© 2014 AZChords.com Contact us | Privacy policy | DMCA | Add/correct tabs | Request tabs | Top 50 tabs