>
 >
Feels Like (It Feels Alright)

Feels Like (It Feels Alright) Guitar Tabs

Collective Soul - Feels Like (It Feels Alright) chords, tabs, tablatures, lyrics

Guitar lessons | Add/correct | Request | Top 50 tabs Artists:  A B C D E F G H I J K L M N O P Q R S T U V W X Y Z 0-9

Feels Like (It Feels Alright) Guitar Tabs – Collective Soul

CD, Sheet music, Poster

Do you like Feels Like (It Feels Alright)? Share with your friends now
Tabs

This isn't their best song, but it has a solid main riff that
sounds cool and is easy to learn. Plz leave comments and
suggestions (even though i think this is 100% right!).

INTRO
GtrI  (GtrII comes in 2nd time through overlapping same chords)
E|------------------------------------------------------------------|
B|------------------------------------------------------------------|
G|---------------------------------5-5-5-5-5-5-5-5-5-5-5-5-5-5-5-5--|
D|-5-5-5-5-5-5-5-5-5-5-5-5-5-5-5-5-5-5-5-5-5-5-5-5-5-5-5-5-5-5-5-5--|x2
A|-5-5-5-5-5-5-5-5-5-5-5-5-5-5-5-5-3-3-3-3-3-3-3-3-3-3-3-3-3-3-3-3--|
E|-3-3-3-3-3-3-3-3-3-3-3-3-3-3-3-3----------------------------------|


GtrI- MAIN RIFF
E|------------------------------------------------------------------|
B|------------------------------------------------------------------|
G|------5-3-4-----------5-3-4-----------5-3-4-----------5-3-4-------|
D|-5-5--------5-5-3-5-5-------5-5-3-5-5-------5-5-3-5-5-------5-5-3-|
A|------------------------------------------------------------------|
E|------------------------------------------------------------------|
GtrII
E|------------------------------------------------------------------|
B|------------------------------------------------------------------|
G|------------------------------------------------------------------|
D|-5-5--------------5-5-------------5-5--------------5-5------------|
A|-5-5--------------5-5-------------5-5--------------5-5------------|
E|-3-3--------------3-3-------------3-3--------------3-3------------|
   . .		    . .		    . . 	     . .


VERSE 1 (Gtrs I & II)
E|------------------------------------------------------------------|
B|------------------------------------------------------------------|
G|---------------------------------5-5-5-5-5-5-5-5-5-5-5-5-5-5-5-5--|
D|-5-5-5-5-5-5-5-5-5-5-5-5-5-5-5-5-5-5-5-5-5-5-5-5-5-5-5-5-5-5-5-5--|
A|-5-5-5-5-5-5-5-5-5-5-5-5-5-5-5-5-3-3-3-3-3-3-3-3-3-3-3-3-3-3-3-3--|
E|-3-3-3-3-3-3-3-3-3-3-3-3-3-3-3-3----------------------------------|
   It feels like a new regime     all hail to the soul machine
   It feels like what i taste always better than yesterday, alright!


GtrI
E|------------------------------------------------------------------|
B|------------------------------------------------------------------|
G|------5-3-4-----------5-3-4-----------5-3-4-----------5-3-4-------|
D|-5-5--------5-5-3-5-5-------5-5-3-5-5-------5-5-3-5-5-------5-5-3-|
A|------------------------------------------------------------------|
E|------------------------------------------------------------------|
GtrII
E|------------------------------------------------------------------|
B|------------------------------------------------------------------|
G|------------------------------------------------------------------|
D|-5-5--------------5-5-------------5-5--------------5-5------------|
A|-5-5--------------5-5-------------5-5--------------5-5------------|
E|-3-3--------------3-3-------------3-3--------------3-3------------|
   . .		    . .		    . . 	     . .


VERSE 2
GtrI
E|------------------------------------------------------------------|
B|------------------------------------------------------------------|
G|---------------------------------5-5-5-5-5-5-5-5-5-5-5-5-5-5-5-5--|
D|-5-5-5-5-5-5-5-5-5-5-5-5-5-5-5-5-5-5-5-5-5-5-5-5-5-5-5-5-5-5-5-5--|
A|-5-5-5-5-5-5-5-5-5-5-5-5-5-5-5-5-3-3-3-3-3-3-3-3-3-3-3-3-3-3-3-3--|
E|-3-3-3-3-3-3-3-3-3-3-3-3-3-3-3-3----------------------------------|
   It feels like sweet sixteen,    all sugar and nicotine
   It feels like ready go,  i'm full throttle while the fluids flow
GtrII
E|------------------------------------------------------------------|
B|---------12-------12----12-----------12-------12----12------------|
G|---12-12----12-12----12--------12-12----12-12----12---------------|
D|------------------------------------------------------------------|
A|------------------------------------------------------------------|
E|------------------------------------------------------------------|
  		(all harmonics)

CHORUS (does this twice)
E|------------------------------------------------------------------|
B|------------------------------------------------------------------|
G|---------------------------------5-5-5-5-5-5-5-5-5-5-5-5-5-5-5-5--|
D|-5-5-5-5-5-5-5-5-5-5-5-5-5-5-5-5-5-5-5-5-5-5-5-5-5-5-5-5-5-5-5-5--|
A|-5-5-5-5-5-5-5-5-5-5-5-5-5-5-5-5-3-3-3-3-3-3-3-3-3-3-3-3-3-3-3-3--|
E|-3-3-3-3-3-3-3-3-3-3-3-3-3-3-3-3----------------------------------|
   It feels like, it feels like, it feels allll--right


VERSE 3
GtrI
E|------------------------------------------------------------------|
B|------------------------------------------------------------------|
G|---------------------------------5-5-5-5-5-5-5-5-5-5-5-5-5-5-5-5--|
D|-5-5-5-5-5-5-5-5-5-5-5-5-5-5-5-5-5-5-5-5-5-5-5-5-5-5-5-5-5-5-5-5--|
A|-5-5-5-5-5-5-5-5-5-5-5-5-5-5-5-5-3-3-3-3-3-3-3-3-3-3-3-3-3-3-3-3--|
E|-3-3-3-3-3-3-3-3-3-3-3-3-3-3-3-3----------------------------------|
   It feels like a sunday dress,   stained w/sin but always blessed
   It feels like the great escape, i love u baby but life can't wait
GtrII
E|------------------------------------------------------------------|
B|--------12-------12----12-------------12-------12----12-----------|
G|--12-12----12-12----12----------12-12----12-12----12--------------|
D|------------------------------------------------------------------|
A|------------------------------------------------------------------|
E|------------------------------------------------------------------|
  			(all harmonics)

CHORUS x2 (Same as first)
MAIN RIFF

SOLO- played over palm-muted verse
E----------------------------------------------------------------------|
B-b14r13b15r13--13-----------13-----------13----------------11------11-|
G---------------12b13r12-10--12b13r12-10--12b13r12p10--11b12----11b12--|
D----------------------------------------------------------------------|
A----------------------------------------------------------------------|
E----------------------------------------------------------------------|

E----------------------------------------------------------------------|
B----8-11b13r11-8------------------------------------------------------|
G-------------------10-12-10--12-10---12----------------12-------------|
D----------------------------------------10b11r10b11r10-----10b11r10---|
A----------------------------------------------------------------------|
E----------------------------------------------------------------------|

Singing comes in "Alright. It feels like what i like...."
E----------------------------------------------------------------------|
B----------------------------------------------------------------------|
G----------------------------------------------------------------------|
D-------------------------------10b11r10-8--------------10-8-10-8------|
A----------------------------------------------------------------------|
E----------------------------------------------------------------------|

E-----------------------------------------------------13~~~~~~~~-------|
B----------------------------------------------------------------------|
G----------------------------------------------------------------------|
D-------------------------------b12r10p8-------------------------------|
A----------------------------------------------------------------------|
E----------------------------------------------------------------------|


Ends with CHORUS once then repeats VERSE 1 combined with the
MAIN RIFF.





Comments


Popular Collective Soul tabs & chords
Better Now Bass Tabs
Shine Bass Tabs
Hollywood Chords
No More No Less Chords
Ood Morning After All Chords
Staring Down Chords
Ten Years Later Chords
Under Heavens Skies 2 Chords
Turn Around  Tabs
Under Heavens Skis Ukulele


Song lyrics



↑ Back to top | Tablatures and chords are parodies/interpretations of the original songs. You may use it for private study, scholarship, research or language learning purposes only
© 2014 AZChords.com Contact us | Privacy policy | DMCA | Add/correct tabs | Request tabs | Top 50 tabs