» » »

Energy Bass tabs (ver.1)

Artists:  A B C D E F G H I J K L M N O P Q R S T U V W X Y Z # 

Energy Bass tabs (ver.1)

Collective Soul
Rating:
0/5 (0 votes)

Hard to play? Try these video lessons and learn fast.
                this from...very kick ass job, Phil... 

this tab is done in all REGULAR tuning but if you wanna play it 
as it ACTUALLY is, u have to tune the guitar down a half step,
play all the stuff up one fret than i have shown, and in the first verse
where i have 6 on the A string you play open on the E string, and the bridge
toward the end, the very last note is open on the E string instead of 1


this is all laid out in order. and it sounds perfect to me, except for the very last 

note of the bridge 2. 


m=mute

Intro: guitar only

Verse 1: (mute each note after its played)
G--------------------------------------------------------------|
D--------------------------------------------------------------|
A---------------------------------66666666---------------------|
E-11111111111111114444444444444444-----------------------------|			

                                           "c'mon..c'mon..c'mon"

Chorus: 2x

G---------------------------------|
D---------------------------------|
A-4---4-----------6---6-----------|
E---------4---4-----------6---6---|


verse: (i think, or beginning of verse.. no singing)

G-----------------------------------------------------------------|
D-----------------------------------------------------------------|
A-8-8---8---8---6-8-8---8----6-----8-8---8---8---6-8-8---6-------6|
E-------------68----------68---8-6-------------68------68--8-6-8--|
      m   m           m                m   m            


Verse 2: (starts off the same .. but changes)

G---------------------------------------------------------------------------------|
D---------------------------------------------------------------------------------|
A-8-8---8---8---6-8-8---8----6---------------4---6-----------4-----6-6---6--------|
E-------------68----------68---8-6-4-4---8---------4-4---8-------8-----------8-6-8|
      m   m           m                m   m   m       m   m   m       m   m

Pause a measure (crazy bassy sound)

G---------------------------------------------------------------------------------|
D--------------------------------------------------6-6---5------------------------|
A-8-8---8---8---6-8-8---8----6---------------4---6-----------8-----6-6---6--------|
E-------------68----------68---8-6-4-4---8-----------------------8-----------8-6-8|
      m   m           m                m   m   m       m   m   m       m   m

Pause ("c'mon..c'mon..c'mon)

Chorus: 2x

G---------------------------------|
D---------------------------------|
A-4---4-----------6---6-----------|
E---------4---4-----------6---6---|
    "and all of your friends.."

Chorus: 2x

G---------------------------------|
D---------6---6-------------------|
A-4---4-----------6---6-----------|
E-------------------------6---6---|
 "and all of your friends"


Bridge:

G---------------------------------|
D---------------------------------|
A---------------------------------|
E-1--1----1--1----4--4----4--4----|

G---------------------------------|
D---------------------------------|
A---------8--6--------------------|
E-1--1----------8-4--4----4--3--1-|

Verse: (mute after each note)
G---------------------------------------------------------|
D---------------------------------------------------------|
A---------------------------------------------------------|
E-11111111111111114444444444444444111111111111111144444444|

pause a measure (............c'mon)


Chorus: 2x

G---------------------------------|
D---------------------------------|
A-4---4-----------6---6-----------|
E---------4---4-----------6---6---|
 "and all of your friends"


Chorus: 4x

G---------------------------------|
D---------6---6-------------------|
A-4---4-----------6---6-----------|
E-------------------------6---6---|
 "and all of your friends"


Outro:

G--------------------------------------------------------------------|
D--------------------------------------------------------------------|
A-8-8---8---8---6-8-8---8----6-----8-8---8---8---6-8-8---8---6-----8-|
E-------------68----------68---8-6-------------68----------68--8-6---|
      m   m           m                m   m           m             m
            
Hard to play? Try these video lessons and learn fast. | Correct




comments powered by Disqus
↑ Back to top | Tablatures and chords are parodies/interpretations of the original songs. You may use it for private study, scholarship, research or language learning purposes only