» » »

Energy Tabs (ver.1)

Artists:  A B C D E F G H I J K L M N O P Q R S T U V W X Y Z # 

Energy Tabs (ver.1)

Collective Soul
Rating:
0/5 (0 votes)

Hard to play? Try these video lessons and learn fast.
                This is the basic riff...

Verse
------------
------------
----5--7--9-
----5--7--9-
----3--5--7-
------------

Chorus
----------------------------
----------------------------
--5-----7-------------------
--5--5--7--7----------------
--3--5--5--7----------------
-----3-----5----------------

Bridge
-------------
-------------
-----5-------
-----5-------
-----3-------
-------------
            
Hard to play? Try these video lessons and learn fast. | Correct




comments powered by Disqus
↑ Back to top | Tablatures and chords are parodies/interpretations of the original songs. You may use it for private study, scholarship, research or language learning purposes only