» » »

December Tabs (ver.5)

Artists:  A B C D E F G H I J K L M N O P Q R S T U V W X Y Z # 

December Tabs (ver.5)

Collective Soul
Rating:
5/5 (20 votes)

Hard to play? Try these video lessons and learn fast.
                December by Collective Soul


Guitar I - Standard Tuning
Guitar II - Standard Tuning

Verse
Guitar I
E/--------3---------3---------3--------------|
B/----3--3-3----3--3-3----3--3-3----3--------|
G/---0-0----0--0-0----0--0-0----0--0-0--0--0-|
D/-------------------------------------------|
A/----------------------3---------1----1--2--|
E/-3----------1------------------------------|

Guitar II
E/-------------------------|
B/-------------------------|
G/---0-----0---0-------0-0-|
D/--0-----0-----0----------|
A/------------3----1--1-2--|
E/-3-----1-----------------|

Chorus
Guitar I
E/-3-3-3-3-3--3-3-3-3-3--3-3-3-3-3--3-3-3-3-3-|
B/-3-3-3-3-3--3-3-3-3-3--3-3-3-3-3--3-3-3-3-3-|
G/-0-0-0-0-0--0-0-0-0-0--0-0-0-0-0--0-0-0-0-0-|
D/-0-0-0-0-0--0-0-0-0-0--0-0-0-0-0--0-0-0-0-0-|
A/-x-x-x-x-x--x-x-x-x-x--3-3-3-3-3--1-1-1-1-1-|
E/-3-3-3-3-3--1-1-1-1-1-----------------------|

Guitar II
E/--------------------------------------|
B/--------------------------------------|
G/-------------------5-5-5-5--3-3-3-4-4-|
D/-5-5-5-5--3-3-3-3--5-5-5-5--3-3-3-4-4-|
A/-5-5-5-5--3-3-3-3--3-3-3-3--1-1-1-2-2-|
E/-3-3-3-3--1-1-1-1---------------------|

Riff after chorus

Guitar I
E/-3-3-3-3-3--3-3-3-3-3--3-3-3-3-3--3-3-3-3-3-|
B/-3-3-3-3-3--3-3-3-3-3--3-3-3-3-3--3-3-3-3-3-|
G/-0-0-0-0-0--0-0-0-0-0--0-0-0-0-0--0-0-0-0-0-|
D/-0-0-0-0-0--0-0-0-0-0--0-0-0-0-0--0-0-0-0-0-|
A/-x-x-x-x-x--x-x-x-x-x--3-3-3-3-3--1-1-1-2-2-|
E/-3-3-3-3-3--1-1-1-1-1-----------------------|

Guitar II
E/-3-3-3-5-3---1-1-1-3-----------------------3-3-5-3---1-1-3-1-1-----------|
B/-3-3-3-3-3-0-1-1-1-1-1-5-5-5-5----3-3-3-3--3-3-3-3-3-1-1-1-1-1-5-5-5-5---|
G/-----------------------5-5-7-5-5--3-3-3-5-3--------------------5-5-7-5-5-|
D/-------------------------------------------------------------------------|
A/-------------------------------------------------------------------------|
E/-------------------------------------------------------------------------|

E/-------------|
B/-3-3-3-3-----|
G/-3-3-3-5-3-0-|
D/-------------|
A/-------------|
E/-------------|

verse

chorus

post chorus riff

Bridge
Guitar I
E/--------------------------------------------------------------|
B/--------------------------------------------------------------|
G/-0-0-0-0-0-0-0-0-0-0-0-0-0-0-0-0-0-0-0-0-0-0--3-3-3-3-3-3-3-0-|
D/-5-5-5-5-5-5-5-0-3-3-3-3-3-3-0-2-2-2-2-2-2-2------------------|
A/-------------------------------3-3-3-3-3-3-3------------------|
E/--------------------------------------------------------------|

Guitar II
NO PLAY

Verse
Guitar I
play normal verse

Guitar II
E/-----------------|
B/-----------------|
G/-3-3-3-3-3-3-3-0-|
D/-----------------|
A/-----------------|
E/-----------------|

chorus

Outro
Guitar I
E/-------3---------3---------3---------------3-|
B/---3--3-3----3--3-3----3--3-3----3---------3-|
G/--0-0----0--0-0----0--0-0----0--0-0--0--0--0-|
D/-------------------------------------------0-|
A/---------------------3---------1----1--2---x-|
E/-3---------1-------------------------------3-|

Guitar II                                        
NO PLAY

post your comments        and please rate
            
Hard to play? Try these video lessons and learn fast. | Correct




comments powered by Disqus
↑ Back to top | Tablatures and chords are parodies/interpretations of the original songs. You may use it for private study, scholarship, research or language learning purposes only