>
 >
Burn

Burn Guitar Tabs

Collective Soul - Burn chords, tabs, tablatures, lyrics

Guitar lessons | Add/correct | Request | Top 50 tabs Artists:  A B C D E F G H I J K L M N O P Q R S T U V W X Y Z 0-9

Burn Guitar Tabs – Collective Soul

CD, Sheet music, Poster

Do you like Burn? Share with your friends now
Tabs
Collective Soul

Words & Music by Ed Roland and Collective Soul

UPDATE: (March 12th) I fixed up and completed the solo.
UPDATE: (March 16th) I fixed up a typo in the solo.

GTR I - Eb Tuning "Ed Roland" (eb,Bb,Gb,Db,Ab,Eb)
GTR II - Eb Tuning "Joel Kosche" (eb,Bb,Gb,Db,Ab,Eb)
GTR III - Eb Tuning "Dean Roland" (eb,Bb,Gb,Db,Ab,Eb)

Intro

   GTR I,II,II
eb|-------------------------------------------------|
Bb|-------------------------------------------------|
Gb|-------------------------------------------------|
Db|--2-----2-----------------2-----2----------------|
Ab|--0-----0-----------------0-----0----------------|
Eb|-------------------------------------------------|
     .     .                 .     .

   GTR I,II,II
eb|-------------------------------------------------|
Bb|-------------------------------------------------|
Gb|-------------------------------------------------|
Db|--2-----2----------------------------------------|
Ab|--0-----0----------------------------------------|
Eb|-------------------------------------------------|
     .     .                          

Main Riff

   GTR I,III
eb|-------------------------------------------------|
Bb|-------------------------------------------------|
Gb|-------------------------------------------------|
Db|--2-----2-----3p-2--------2-----2-----3p-2-------|
Ab|--0-----0-----------------0-----0----------------|
Eb|-------------------------------------------------|
  |  .     .                 .     .  
  |GTR II
eb|-------------------------------------------------|
Bb|--------------6p-5--------------------6p-5-------|
Gb|-------------------------------------------------|
Db|--2-----2-----------------2-----2----------------|
Ab|--0-----0-----------------0-----0----------------|
Eb|-------------------------------------------------|
     .     .                 .     .  

   GTR I,III
eb|-------------------------------------------------|
Bb|-------------------------------------------------|
Gb|-------------------------------------------------|
Db|--2-----2-----3p-2-----------2--------3p-2--0h-2-|
Ab|--0-----0-----------------3-----3p-2-------------|
Eb|-------------------------------------------------|
  |  .     .                          
  |GTR II
eb|-------------------------------------------------|
Bb|--------------6p-5-----------5--------6p-5--3h-5-|
Gb|--------------------------5-----5p-4-------------|
Db|--2-----2----------------------------------------|
Ab|--0-----0----------------------------------------|
Eb|-------------------------------------------------|
     .     .                          

   GTR I,III
eb|-------------------------------------------------|
Bb|-------------------------------------------------|
Gb|-------------------------------------------------|
Db|--2-----2-----3p-2--------2-----2-----3p-2-------|
Ab|--0-----0-----------------0-----0----------------|
Eb|-------------------------------------------------|
  |  .     .                 .     .  
  |GTR II
eb|-------------------------------------------------|
Bb|--------------6p-5--------------------6p-5-------|
Gb|-------------------------------------------------|
Db|--2-----2-----------------2-----2----------------|
Ab|--0-----0-----------------0-----0----------------|
Eb|-------------------------------------------------|
     .     .                 .     .  

   GTR I,III
eb|-------------------------------------------------|
Bb|-------------------------------------------------|
Gb|-------------------------------------------------|
Db|--2-----2-----3p-2-----------2--------3p-2--0h-2-|
Ab|--0-----0-----------------3-----3p-2-------------|
Eb|-------------------------------------------------|
  |  .     .                          
  |GTR II
eb|-------------------------------------------------|
Bb|--------------6p-5-----------5--------6p-5--3h-5-|
Gb|--------------------------5-----5p-4-------------|
Db|--2-----2----------------------------------------|
Ab|--0-----0----------------------------------------|
Eb|-------------------------------------------------|
     .     .                          

   GTR I,III
eb|-------------------------------------------------|
Bb|-------------------------------------------------|
Gb|-------------------------------------------------|
Db|--2-----2-----3p-2--------2-----2-----3p-2-------|
Ab|--0-----0-----------------0-----0----------------|
Eb|-------------------------------------------------|
  |  .     .                 .     .  
  |GTR II
eb|-------------------------------------------------|
Bb|--------------6p-5--------------------6p-5-------|
Gb|-------------------------------------------------|
Db|--2-----2-----------------2-----2----------------|
Ab|--0-----0-----------------0-----0----------------|
Eb|-------------------------------------------------|
     .     .                 .     .  

   GTR I,III
eb|-------------------------------------------------|
Bb|-------------------------------------------------|
Gb|-------------------------------------------------|
Db|--2-----2-----3p-2-----------2--------3p-2--0h-2-|
Ab|--0-----0-----------------3-----3p-2-------------|
Eb|-------------------------------------------------|
  |  .     .                          
  |GTR II
eb|-------------------------------------------------|
Bb|--------------6p-5-----------5--------6p-5--3h-5-|
Gb|--------------------------5-----5p-4-------------|
Db|--2-----2----------------------------------------|
Ab|--0-----0----------------------------------------|
Eb|-------------------------------------------------|
     .     .                          

Verse

   GTR II,III
eb|-------------------------------------------------|
Bb|-------------------------------------------------|
Gb|--2--------------------2-------------------------|
Db|--2-----------x--x--x--2-------------------------|
Ab|--0-----------x--x--x--0-------------------------|
Eb|--------------x--x--x----------------------------|

   GTR II,III
eb|-------------------------------------------------|
Bb|-------------------------------------------------|
Gb|--2--------------------2-------------------------|
Db|--2-----------x--x--x--2-------------------------|
Ab|--0-----------x--x--x--0-------------------------|
Eb|--------------x--x--x----------------------------|

   GTR II,III
eb|--x--------------------x-------------------------|
Bb|--3--------------------3-------------------------|
Gb|--2--------------------2-------------------------|
Db|--0-----------x--x--x--0-------------------------|
Ab|--0-----------x--x--x--0-------------------------|
Eb|--3-----------x--x--x--3-------------------------|

   GTR II,III
eb|--x--------------------x-------------------------|
Bb|--3--------------------3-------------------------|
Gb|--2--------------------2-------------------------|
Db|--0-----------x--x--x--0-------------------------|
Ab|--0-----------x--x--x--0-------------------------|
Eb|--2-----------x--x--x--2-------------------------|

   GTR II,III
eb|-------------------------------------------------|
Bb|-------------------------------------------------|
Gb|--2--------------------2-------------------------|
Db|--2-----------x--x--x--2-------------------------|
Ab|--0-----------x--x--x--0-------------------------|
Eb|--------------x--x--x----------------------------|

   GTR II,III
eb|-------------------------------------------------|
Bb|-------------------------------------------------|
Gb|--2--------------------2-------------------------|
Db|--2-----------x--x--x--2-------------------------|
Ab|--0-----------x--x--x--0-------------------------|
Eb|--------------x--x--x----------------------------|

   GTR II,III
eb|--x--------------------x-------------------------|
Bb|--3--------------------3-------------------------|
Gb|--2--------------------2-------------------------|
Db|--0-----------x--x--x--0-------------------------|
Ab|--0-----------x--x--x--0-------------------------|
Eb|--3-----------x--x--x--3-------------------------|

   GTR II,III
eb|--x--------------------x-------------------------|
Bb|--3--------------------3-------------------------|
Gb|--2--------------------2-------------------------|
Db|--0-----------x--x--x--0-------------------------|
Ab|--0-----------x--x--x--0-------------------------|
Eb|--2-----------x--x--x--2-------------------------|

Chorus

   GTR I,II,III
eb|-------------------------------------------------|
Bb|-------------------------------------------------|
Gb|--2-----2-----2-----2-----2-----2-----2-----2----|
Db|--2-----2-----2-----2-----2-----2-----2-----2----|
Ab|--0-----0-----0-----0-----0-----0-----0-----0----|
Eb|-------------------------------------------------|

   GTR I,II,III
eb|-------------------------------------------------|
Bb|-------------------------------------------------|
Gb|--5-----5-----5-----5-----5-----5-----5-----5----|
Db|--5-----5-----5-----5-----5-----5-----5-----5----|
Ab|--3-----3-----3-----3-----3-----3-----3-----3----|
Eb|-------------------------------------------------|

   GTR I,II,III
eb|-------------------------------------------------|
Bb|-------------------------------------------------|
Gb|--7-----7-----7-----7-----7-----7-----7-----7----|
Db|--7-----7-----7-----7-----7-----7-----7-----7----|
Ab|--5-----5-----5-----5-----5-----5-----5-----5----|
Eb|-------------------------------------------------|

   GTR I,II,III
eb|-------------------------------------------------|
Bb|-------------------------------------------------|
Gb|--2-----2-----2-----2----------------------------|
Db|--2-----2-----2-----2----------------------------|
Ab|--0-----0-----0-----0----------------------------|
Eb|--------------------------3h-5-----5--3h-5-----5-|

   GTR I,II,III
eb|-------------------------------------------------|
Bb|-------------------------------------------------|
Gb|--2-----2-----2-----2-----2-----2-----2-----2----|
Db|--2-----2-----2-----2-----2-----2-----2-----2----|
Ab|--0-----0-----0-----0-----0-----0-----0-----0----|
Eb|-------------------------------------------------|

   GTR I,II,III
eb|-------------------------------------------------|
Bb|-------------------------------------------------|
Gb|--5-----5-----5-----5-----5-----5-----5-----5----|
Db|--5-----5-----5-----5-----5-----5-----5-----5----|
Ab|--3-----3-----3-----3-----3-----3-----3-----3----|
Eb|-------------------------------------------------|

   GTR I,II,III
eb|-------------------------------------------------|
Bb|-------------------------------------------------|
Gb|--7-----7-----7-----7-----7-----7-----7-----7----|
Db|--7-----7-----7-----7-----7-----7-----7-----7----|
Ab|--5-----5-----5-----5-----5-----5-----5-----5----|
Eb|-------------------------------------------------|

Post Chorus

   GTR I,III
eb|-------------------------------------------------|
Bb|-------------------------------------------------|
Gb|-------------------------------------------------|
Db|--2-----2-----3p-2--------2-----2-----3p-2-------|
Ab|--0-----0-----------------0-----0----------------|
Eb|-------------------------------------------------|
  |  .     .                 .     .  
  |GTR II
eb|-------------------------------------------------|
Bb|--------------6p-5--------------------6p-5-------|
Gb|-------------------------------------------------|
Db|--2-----2-----------------2-----2----------------|
Ab|--0-----0-----------------0-----0----------------|
Eb|-------------------------------------------------|
     .     .                 .     .  

   GTR I,III
eb|-------------------------------------------------|
Bb|-------------------------------------------------|
Gb|-------------------------------------------------|
Db|--2-----2-----3p-2-----------2--------3p-2--0h-2-|
Ab|--0-----0-----------------3-----3p-2-------------|
Eb|-------------------------------------------------|
  |  .     .                          
  |GTR II
eb|-------------------------------------------------|
Bb|--------------6p-5-----------5--------6p-5--3h-5-|
Gb|--------------------------5-----5p-4-------------|
Db|--2-----2----------------------------------------|
Ab|--0-----0----------------------------------------|
Eb|-------------------------------------------------|
     .     .                          

   GTR I,III
eb|-------------------------------------------------|
Bb|-------------------------------------------------|
Gb|-------------------------------------------------|
Db|--2-----2-----3p-2--------2-----2-----3p-2-------|
Ab|--0-----0-----------------0-----0----------------|
Eb|-------------------------------------------------|
  |  .     .                 .     .  
  |GTR II
eb|-------------------------------------------------|
Bb|--------------6p-5--------------------6p-5-------|
Gb|-------------------------------------------------|
Db|--2-----2-----------------2-----2----------------|
Ab|--0-----0-----------------0-----0----------------|
Eb|-------------------------------------------------|
     .     .                 .     .  

   GTR I,III
eb|-------------------------------------------------|
Bb|-------------------------------------------------|
Gb|-------------------------------------------------|
Db|--2-----2-----3p-2-----------2--------3p-2--0h-2-|
Ab|--0-----0-----------------3-----3p-2-------------|
Eb|-------------------------------------------------|
  |  .     .                          
  |GTR II
eb|-------------------------------------------------|
Bb|--------------6p-5-----------5--------6p-5--3h-5-|
Gb|--------------------------5-----5p-4-------------|
Db|--2-----2----------------------------------------|
Ab|--0-----0----------------------------------------|
Eb|-------------------------------------------------|
     .     .                          

Verse 2

   GTR II,III
eb|-------------------------------------------------|
Bb|-------------------------------------------------|
Gb|--2--------------------2-------------------------|
Db|--2-----------x--x--x--2-------------------------|
Ab|--0-----------x--x--x--0-------------------------|
Eb|--------------x--x--x----------------------------|

   GTR II,III
eb|-------------------------------------------------|
Bb|-------------------------------------------------|
Gb|--2--------------------2-------------------------|
Db|--2-----------x--x--x--2-------------------------|
Ab|--0-----------x--x--x--0-------------------------|
Eb|--------------x--x--x----------------------------|

   GTR II,III
eb|--x--------------------x-------------------------|
Bb|--3--------------------3-------------------------|
Gb|--2--------------------2-------------------------|
Db|--0-----------x--x--x--0-------------------------|
Ab|--0-----------x--x--x--0-------------------------|
Eb|--3-----------x--x--x--3-------------------------|

   GTR II,III
eb|--x--------------------x-------------------------|
Bb|--3--------------------3-------------------------|
Gb|--2--------------------2-------------------------|
Db|--0-----------x--x--x--0-------------------------|
Ab|--0-----------x--x--x--0-------------------------|
Eb|--2-----------x--x--x--2-------------------------|

   GTR II,III
eb|-------------------------------------------------|
Bb|-------------------------------------------------|
Gb|--2--------------------2-------------------------|
Db|--2-----------x--x--x--2-------------------------|
Ab|--0-----------x--x--x--0-------------------------|
Eb|--------------x--x--x----------------------------|

   GTR II,III
eb|-------------------------------------------------|
Bb|-------------------------------------------------|
Gb|--2--------------------2-------------------------|
Db|--2-----------x--x--x--2-------------------------|
Ab|--0-----------x--x--x--0-------------------------|
Eb|--------------x--x--x----------------------------|

   GTR II,III
eb|--x--------------------x-------------------------|
Bb|--3--------------------3-------------------------|
Gb|--2--------------------2-------------------------|
Db|--0-----------x--x--x--0-------------------------|
Ab|--0-----------x--x--x--0-------------------------|
Eb|--3-----------x--x--x--3-------------------------|

   GTR II,III
eb|--x--------------------x-------------------------|
Bb|--3--------------------3-------------(4)(4)(4)(4)|
Gb|--2--------------------2-------------------------|
Db|--0-----------x--x--x--0-------------------------|
Ab|--0-----------x--x--x--0-------------------------|
Eb|--2-----------x--x--x--2-------------------------|

Chorus 2

   GTR I,III
eb|-------------------------------------------------|
Bb|-------------------------------------------------|
Gb|--2-----2-----2-----2-----2-----2-----2-----2----|
Db|--2-----2-----2-----2-----2-----2-----2-----2----|
Ab|--0-----0-----0-----0-----0-----0-----0-----0----|
Eb|-------------------------------------------------|
  |
  |GTR II (w. Flanger)
eb|-------------------------------------------------|
Bb|-------------10----------------------10----------|
Gb|--------9-----------9-----------9-----------9----|
Db|--7-----------------------7----------------------|
Ab|-------------------------------------------------|
Eb|-------------------------------------------------|

   GTR I,III
eb|-------------------------------------------------|
Bb|-------------------------------------------------|
Gb|--5-----5-----5-----5-----5-----5-----5-----5----|
Db|--5-----5-----5-----5-----5-----5-----5-----5----|
Ab|--3-----3-----3-----3-----3-----3-----3-----3----|
Eb|-------------------------------------------------|
  |
  |GTR II (w. Flanger)
eb|-------------------------------------------------|
Bb|-------------13----------------------13----------|
Gb|-------12----------12----------12----------12----|
Db|-10----------------------10----------------------|
Ab|-------------------------------------------------|
Eb|-------------------------------------------------|

   GTR I,III
eb|-------------------------------------------------|
Bb|-------------------------------------------------|
Gb|--7-----7-----7-----7-----7-----7-----7-----7----|
Db|--7-----7-----7-----7-----7-----7-----7-----7----|
Ab|--5-----5-----5-----5-----5-----5-----5-----5----|
Eb|-------------------------------------------------|
  |
  |GTR II (w. Flanger)
eb|-------------------------------------------------|
Bb|-------------15----------------------15----------|
Gb|-------14----------14----------14----------14----|
Db|-12----------------------12----------------------|
Ab|-------------------------------------------------|
Eb|-------------------------------------------------|

   GTR I,III
eb|-------------------------------------------------|
Bb|-------------------------------------------------|
Gb|--2-----2-----2-----2----------------------------|
Db|--2-----2-----2-----2----------------------------|
Ab|--0-----0-----0-----0----------------------------|
Eb|--------------------------3h-5-----5--3h-5-----5-|
  |
  |GTR II (w. Flanger)
eb|-------------------------------------------------|
Bb|-------------10----------------------------------|
Gb|--------9-----------9----------------------------|
Db|--7----------------------------------------------|
Ab|-------------------------------------------------|
Eb|-------------------------------------------------|

   GTR I,III
eb|-------------------------------------------------|
Bb|-------------------------------------------------|
Gb|--2-----2-----2-----2-----2-----2-----2-----2----|
Db|--2-----2-----2-----2-----2-----2-----2-----2----|
Ab|--0-----0-----0-----0-----0-----0-----0-----0----|
Eb|-------------------------------------------------|
  |
  |GTR II (w. Flanger)
eb|-------------------------------------------------|
Bb|-------------10----------------------10----------|
Gb|--------9-----------9-----------9-----------9----|
Db|--7-----------------------7----------------------|
Ab|-------------------------------------------------|
Eb|-------------------------------------------------|

   GTR I,III
eb|-------------------------------------------------|
Bb|-------------------------------------------------|
Gb|--5-----5-----5-----5-----5-----5-----5-----5----|
Db|--5-----5-----5-----5-----5-----5-----5-----5----|
Ab|--3-----3-----3-----3-----3-----3-----3-----3----|
Eb|-------------------------------------------------|
  |
  |GTR II (w. Flanger)
eb|-------------------------------------------------|
Bb|-------------13----------------------13----------|
Gb|-------12----------12----------12----------12----|
Db|-10----------------------10----------------------|
Ab|-------------------------------------------------|
Eb|-------------------------------------------------|

   GTR I,III
eb|-------------------------------------------------|
Bb|-------------------------------------------------|
Gb|--7-----7-----7-----7-----7-----7-----7-----7----|
Db|--7-----7-----7-----7-----7-----7-----7-----7----|
Ab|--5-----5-----5-----5-----5-----5-----5-----5----|
Eb|-------------------------------------------------|
  |
  |GTR II (w. Flanger)
eb|-------------------------------------------------|
Bb|-------------15----------------------15----------|
Gb|-------14----------14----------14----------14----|
Db|-12----------------------12----------------------|
Ab|-------------------------------------------------|
Eb|-------------------------------------------------|

Bridge

   GTR II (w. Flanger)
eb|-------------------------------------------------|
Bb|-------------------------------------------------|
Gb|-------------------------------------------------|
Db|--------------------------------------------5----|
Ab|--0-----0--0--3h-5-----0-----0--0h-3--3h-5-------|
Eb|-------------------------------------------------|

   GTR II (w. Flanger)
eb|-------------------------------------------------|
Bb|-------------------------------------------------|
Gb|-------------------------------------------------|
Db|--------------------------------------------5----|
Ab|--0-----0--0--3h-5-----0-----0--0h-3--3h-5-------|
Eb|-------------------------------------------------|

   GTR II (w. Flanger)
eb|-------------------------------------------------|
Bb|-------------------------------------------------|
Gb|-------------------------------------------------|
Db|--------------------------------------------5----|
Ab|--0-----0--0--3h-5-----0-----0--0h-3--3h-5-------|
Eb|-------------------------------------------------|

   GTR I,III
eb|-------------------------------------------------|
Bb|-------------------------------------------------|
Gb|-------------------------------------------------|
Db|-------------------------------------------------|
Ab|-------------------------------------------------|
Eb|--------------------------------3b---------------|
  |
  |GTR II (w. Flanger)
eb|-------------------------------------------------|
Bb|-------------------------------------------------|
Gb|-------------------------------------------------|
Db|-------------------------------------------------|
Ab|--0-----0--0--3h-5-----0-----0-------------------|
Eb|-------------------------------------------------|

   GTR I,III
eb|-------------------------------------------------|
Bb|-------------------------------------------------|
Gb|-------------------------------------------------|
Db|--------------------------------------------5----|
Ab|--0-----0--0--3h-5-----0-----0--0h-3--3h-5-------|
Eb|-------------------------------------------------|

   GTR I,III
eb|-------------------------------------------------|
Bb|-------------------------------------------------|
Gb|-------------------------------------------------|
Db|--------------------------------------------5----|
Ab|--0-----0--0--3h-5-----0-----0--0h-3--3h-5-------|
Eb|-------------------------------------------------|

   GTR I,III
eb|-------------------------------------------------|
Bb|-------------------------------------------------|
Gb|-------------------------------------------------|
Db|--------------------------------------------5----|
Ab|--0-----0--0--3h-5-----0-----0--0h-3--3h-5-------|
Eb|-------------------------------------------------|

   GTR I,III
eb|-------------------------------------------------|
Bb|-------------------------------------------------|
Gb|-------------------------------------------------|
Db|-------------------------------------------------|
Ab|--0-----0--0--3h-5-----0-----0-------------------|
Eb|--------------------------------3--3--3--3--3--3-|
  |
  |GTR II (w. Flanger)
eb|-------------------------------------------------|
Bb|-------------------------------------------------|
Gb|-------------------------------------------------|
Db|-------------------------------------------------|
Ab|-----------------------------------------Pickslid|
Eb|-----------------------------------------Pickslid|

Guitar Solo

   GTR I,III
eb|-------------------------------------------------|
Bb|-------------------------------------------------|
Gb|--2-----2-----2-----2-----2-----2-----2-----2----|
Db|--2-----2-----2-----2-----2-----2-----2-----2----|
Ab|--0-----0-----0-----0-----0-----0-----0-----0----|
Eb|-------------------------------------------------|
  |
  | PH.
eb|-------------------------------------------------|
Bb|-------------------------------------------------|
Gb|-------------------------------------------------|
Db|-10b---------------------------------------------|
Ab|-------------12----10-12----10-12~---------10h12-|
Eb|-------------------------------------------------|

   GTR I,III
eb|-------------------------------------------------|
Bb|-------------------------------------------------|
Gb|--5-----5-----5-----5-----5-----5-----5-----5----|
Db|--5-----5-----5-----5-----5-----5-----5-----5----|
Ab|--3-----3-----3-----3-----3-----3-----3-----3----|
Eb|-------------------------------------------------|
  |
  |GTR II
eb|-------------------------------------------------|
Bb|-------------------------------------------------|
Gb|-------------------------------------------------|
Db|-10b---------------------------------------------|
Ab|-------------12----10-12----10-12~---------10h12-|
Eb|-------------------------------------------------|

   GTR I,III
eb|-------------------------------------------------|
Bb|-------------------------------------------------|
Gb|--7-----7-----7-----7-----7-----7-----7-----7----|
Db|--7-----7-----7-----7-----7-----7-----7-----7----|
Ab|--5-----5-----5-----5-----5-----5-----5-----5----|
Eb|-------------------------------------------------|
  |
  |GTR II
eb|-------------------------------------------------|
Bb|-------------------------------------------------|
Gb|-------------------------------------------------|
Db|-10b---------------------------------------------|
Ab|-------------12----10-12----10-12~---------------|
Eb|-------------------------------------------------|

   GTR I,III
eb|-------------------------------------------------|
Bb|-------------------------------------------------|
Gb|--2-----2-----2-----2-----2-----2-----2-----2----|
Db|--2-----2-----2-----2-----2-----2-----2-----2----|
Ab|--0-----0-----0-----0-----0-----0-----0-----0----|
Eb|-------------------------------------------------|
  |
  |GTR II
eb|-------------------------------------------------|
Bb|-------------------------------------------------|
Gb|----------------------12~---12-12/14-12~---------|
Db|121312-10-12-10----------------------------------|
Ab|----------------12-10----------------------------|
Eb|-------------------------------------------------|

   GTR I,III
eb|-------------------------------------------------|
Bb|-------------------------------------------------|
Gb|--2-----2-----2-----2-----2-----2-----2-----2----|
Db|--2-----2-----2-----2-----2-----2-----2-----2----|
Ab|--0-----0-----0-----0-----0-----0-----0-----0----|
Eb|-------------------------------------------------|
  |
  |GTR II
eb|-------------------------------------------------|
Bb|-17----------15-------15-------15----------------|
Gb|-------------------17-------17----17-14----14-17-|
Db|----------------------------------------17-------|
Ab|-------------------------------------------------|
Eb|-------------------------------------------------|

   GTR I,III
eb|-------------------------------------------------|
Bb|-------------------------------------------------|
Gb|--5-----5-----5-----5-----5-----5-----5-----5----|
Db|--5-----5-----5-----5-----5-----5-----5-----5----|
Ab|--3-----3-----3-----3-----3-----3-----3-----3----|
Eb|-------------------------------------------------|
  |
  |GTR II
eb|-------------------------------------------------|
Bb|-15-17-15----------------15-17-15----------------|
Gb|----------17-14----14-17----------17-14----14-17-|
Db|----------------17----------------------17-------|
Ab|-------------------------------------------------|
Eb|-------------------------------------------------|

   GTR I,III
eb|-------------------------------------------------|
Bb|-------------------------------------------------|
Gb|--7-----7-----7-----7-----7-----7-----7-----7----|
Db|--7-----7-----7-----7-----7-----7-----7-----7----|
Ab|--5-----5-----5-----5-----5-----5-----5-----5----|
Eb|-------------------------------------------------|
  |
  ||-trp-|-trp-|-trp-|-trp-|-trp-|-trp-|-trp-|-trp-|
eb|-------------------------------------------------|
Bb|-------------------------------------------------|
Gb|191714191714191714191714191714191714191714191714-|
Db|-------------------------------------------------|
Ab|-------------------------------------------------|
Eb|-------------------------------------------------|

**NOTE** The above is |-19p17p14-|

   GTR I,III
eb|-------------------------------------------------|
Bb|-------------------------------------------------|
Gb|--2-----2-----2-----2----------------------------|
Db|--2-----2-----2-----2----------------------------|
Ab|--0-----0-----0-----0----------------------------|
Eb|--------------------------3h-5-----5--3h-5-----5-|
  |
  |GTR II
eb|-------------------------------------------------|
Bb|-20b---------20b~--------------------------------|
Gb|-------------------------------------------------|
Db|-------------------------------------------------|
Ab|-------------------------------------------------|
Eb|-------------------------------------------------|

Chorus 3

   GTR I,III
eb|-------------------------------------------------|
Bb|-------------------------------------------------|
Gb|--2-----2-----2-----2-----2-----2-----2-----2----|
Db|--2-----2-----2-----2-----2-----2-----2-----2----|
Ab|--0-----0-----0-----0-----0-----0-----0-----0----|
Eb|-------------------------------------------------|
  |
  |GTR II (w. Flanger)
eb|-------------------------------------------------|
Bb|-------------10----------------------10----------|
Gb|--------9-----------9-----------9-----------9----|
Db|--7-----------------------7----------------------|
Ab|-------------------------------------------------|
Eb|-------------------------------------------------|

   GTR I,III
eb|-------------------------------------------------|
Bb|-------------------------------------------------|
Gb|--5-----5-----5-----5-----5-----5-----5-----5----|
Db|--5-----5-----5-----5-----5-----5-----5-----5----|
Ab|--3-----3-----3-----3-----3-----3-----3-----3----|
Eb|-------------------------------------------------|
  |
  |GTR II (w. Flanger)
eb|-------------------------------------------------|
Bb|-------------13----------------------13----------|
Gb|-------12----------12----------12----------12----|
Db|-10----------------------10----------------------|
Ab|-------------------------------------------------|
Eb|-------------------------------------------------|

   GTR I,III
eb|-------------------------------------------------|
Bb|-------------------------------------------------|
Gb|--7-----7-----7-----7-----7-----7-----7-----7----|
Db|--7-----7-----7-----7-----7-----7-----7-----7----|
Ab|--5-----5-----5-----5-----5-----5-----5-----5----|
Eb|-------------------------------------------------|
  |
  |GTR II (w. Flanger)
eb|-------------------------------------------------|
Bb|-------------15----------------------15----------|
Gb|-------14----------14----------14----------14----|
Db|-12----------------------12----------------------|
Ab|-------------------------------------------------|
Eb|-------------------------------------------------|

   GTR I,III
eb|-------------------------------------------------|
Bb|-------------------------------------------------|
Gb|--2-----2-----2-----2----------------------------|
Db|--2-----2-----2-----2----------------------------|
Ab|--0-----0-----0-----0----------------------------|
Eb|--------------------------3h-5--------3h-5-------|
  |
  |GTR II (w. Flanger)         PH.         PH.
eb|-------------------------------------------------|
Bb|-------------10----------------------------------|
Gb|--------9-----------9----------------------------|
Db|--7-----------------------5--7~-------5--7~------|
Ab|-------------------------------------------------|
Eb|-------------------------------------------------|

   GTR I,III
eb|-------------------------------------------------|
Bb|-------------------------------------------------|
Gb|--2-----2-----2-----2-----2-----2-----2-----2----|
Db|--2-----2-----2-----2-----2-----2-----2-----2----|
Ab|--0-----0-----0-----0-----0-----0-----0-----0----|
Eb|-------------------------------------------------|
  |
  |GTR II (w. Flanger)
eb|-------------------------------------------------|
Bb|-------------10----------------------10----------|
Gb|--------9-----------9-----------9-----------9----|
Db|--7-----------------------7----------------------|
Ab|-------------------------------------------------|
Eb|-------------------------------------------------|

   GTR I,III
eb|-------------------------------------------------|
Bb|-------------------------------------------------|
Gb|--5-----5-----5-----5-----5-----5-----5-----5----|
Db|--5-----5-----5-----5-----5-----5-----5-----5----|
Ab|--3-----3-----3-----3-----3-----3-----3-----3----|
Eb|-------------------------------------------------|
  |
  |GTR II (w. Flanger)
eb|-------------------------------------------------|
Bb|-------------13----------------------13----------|
Gb|-------12----------12----------12----------12----|
Db|-10----------------------10----------------------|
Ab|-------------------------------------------------|
Eb|-------------------------------------------------|

   GTR I,III
eb|-------------------------------------------------|
Bb|-------------------------------------------------|
Gb|--7-----7-----7-----7-----7-----7-----7-----7----|
Db|--7-----7-----7-----7-----7-----7-----7-----7----|
Ab|--5-----5-----5-----5-----5-----5-----5-----5----|
Eb|-------------------------------------------------|
  |
  |GTR II (w. Flanger)
eb|-------------------------------------------------|
Bb|-------------15----------------------15----------|
Gb|-------14----------14----------14----------14----|
Db|-12----------------------12----------------------|
Ab|-------------------------------------------------|
Eb|-------------------------------------------------|

   GTR I,III
eb|-------------------------------------------------|
Bb|-------------------------------------------------|
Gb|--2-----2-----2-----2----------------------------|
Db|--2-----2-----2-----2----------------------------|
Ab|--0-----0-----0-----0----------------------------|
Eb|--------------------------3h-5--------3h-5-------|
  |
  |GTR II (w. Flanger)         PH.         PH.
eb|-------------------------------------------------|
Bb|-------------10----------------------------------|
Gb|--------9-----------9----------------------------|
Db|--7-----------------------5--7~-------5--7~------|
Ab|-------------------------------------------------|
Eb|-------------------------------------------------|

   GTR I,III
eb|-------------------------------------------------|
Bb|-------------------------------------------------|
Gb|--2-----2-----2-----2-----2-----2-----2-----2----|
Db|--2-----2-----2-----2-----2-----2-----2-----2----|
Ab|--0-----0-----0-----0-----0-----0-----0-----0----|
Eb|-------------------------------------------------|
  |
  |GTR II (w. Flanger)
eb|-------------------------------------------------|
Bb|-------------10----------------------10----------|
Gb|--------9-----------9-----------9-----------9----|
Db|--7-----------------------7----------------------|
Ab|-------------------------------------------------|
Eb|-------------------------------------------------|

   GTR I,III
eb|-------------------------------------------------|
Bb|-------------------------------------------------|
Gb|--5-----5-----5-----5-----5-----5-----5-----5----|
Db|--5-----5-----5-----5-----5-----5-----5-----5----|
Ab|--3-----3-----3-----3-----3-----3-----3-----3----|
Eb|-------------------------------------------------|
  |
  |GTR II (w. Flanger)
eb|-------------------------------------------------|
Bb|-------------13----------------------13----------|
Gb|-------12----------12----------12----------12----|
Db|-10----------------------10----------------------|
Ab|-------------------------------------------------|
Eb|-------------------------------------------------|

   GTR I,III
eb|-------------------------------------------------|
Bb|-------------------------------------------------|
Gb|--7-----7-----7-----7-----7-----7-----7-----7----|
Db|--7-----7-----7-----7-----7-----7-----7-----7----|
Ab|--5-----5-----5-----5-----5-----5-----5-----5----|
Eb|-------------------------------------------------|
  |
  |GTR II (w. Flanger)
eb|-------------------------------------------------|
Bb|-------------15----------------------15----------|
Gb|-------14----------14----------14----------14----|
Db|-12----------------------12----------------------|
Ab|-------------------------------------------------|
Eb|-------------------------------------------------|

   GTR I,III
eb|-------------------------------------------------|
Bb|-------------------------------------------------|
Gb|--2-----2-----2-----2----------------------------|
Db|--2-----2-----2-----2----------------------------|
Ab|--0-----0-----0-----0----------------------------|
Eb|--------------------------3h-5--------3h-5-------|
  |
  |GTR II (w. Flanger)         PH.         PH.
eb|-------------------------------------------------|
Bb|-------------10----------------------------------|
Gb|--------9-----------9----------------------------|
Db|--7-----------------------5--7~-------5--7~------|
Ab|-------------------------------------------------|
Eb|-------------------------------------------------|

   GTR I,III
eb|-------------------------------------------------|
Bb|-------------------------------------------------|
Gb|--2-----2-----2-----2-----2-----2-----2-----2----|
Db|--2-----2-----2-----2-----2-----2-----2-----2----|
Ab|--0-----0-----0-----0-----0-----0-----0-----0----|
Eb|-------------------------------------------------|
  |
  |GTR II (w. Flanger)
eb|-------------------------------------------------|
Bb|-------------10----------------------10----------|
Gb|--------9-----------9-----------9-----------9----|
Db|--7-----------------------7----------------------|
Ab|-------------------------------------------------|
Eb|-------------------------------------------------|

   GTR I,III
eb|-------------------------------------------------|
Bb|-------------------------------------------------|
Gb|--5-----5-----5-----5-----5-----5-----5-----5----|
Db|--5-----5-----5-----5-----5-----5-----5-----5----|
Ab|--3-----3-----3-----3-----3-----3-----3-----3----|
Eb|-------------------------------------------------|
  |
  |GTR II (w. Flanger)
eb|-------------------------------------------------|
Bb|-------------13----------------------13----------|
Gb|-------12----------12----------12----------12----|
Db|-10----------------------10----------------------|
Ab|-------------------------------------------------|
Eb|-------------------------------------------------|

   GTR I,III
eb|-------------------------------------------------|
Bb|-------------------------------------------------|
Gb|--7-----7-----7-----7-----7-----7-----7-----7----|
Db|--7-----7-----7-----7-----7-----7-----7-----7----|
Ab|--5-----5-----5-----5-----5-----5-----5-----5----|
Eb|-------------------------------------------------|
  |
  |GTR II (w. Flanger)
eb|-------------------------------------------------|
Bb|-------------15----------------------15----------|
Gb|-------14----------14----------14----------14----|
Db|-12----------------------12----------------------|
Ab|-------------------------------------------------|
Eb|-------------------------------------------------|

Main Riff

Outro

   GTR I,III
eb|-------------------------------------------------|
Bb|-------------------------------------------------|
Gb|-------------------------------------------------|
Db|--2-----2-----3p-2--------2-----2-----3p-2-------|
Ab|--0-----0-----------------0-----0----------------|
Eb|-------------------------------------------------|
  |  .     .                 .     .  
  |GTR II
eb|-------------------------------------------------|
Bb|--------------6p-5--------------------6p-5-------|
Gb|-------------------------------------------------|
Db|--2-----2-----------------2-----2----------------|
Ab|--0-----0-----------------0-----0----------------|
Eb|-------------------------------------------------|
     .     .                 .     .  

   GTR I,III
eb|-------------------------------------------------|
Bb|-------------------------------------------------|
Gb|-------------------------------------------------|
Db|--2-----2-----3p-2-----------2--------3p-2--0h-2-|
Ab|--0-----0-----------------3-----3p-2-------------|
Eb|-------------------------------------------------|
  |  .     .                          
  |GTR II
eb|-------------------------------------------------|
Bb|--------------6p-5-----------5--------6p-5--3h-5-|
Gb|--------------------------5-----5p-4-------------|
Db|--2-----2----------------------------------------|
Ab|--0-----0----------------------------------------|
Eb|-------------------------------------------------|
     .     .                          

   GTR I,III
eb|-------------------------------------------------|
Bb|-------------------------------------------------|
Gb|-------------------------------------------------|
Db|-----2--------3p-2--0h-2-----2--------3p-2--0h-2-|
Ab|--3-----3p-2--------------3-----3p-2-------------|
Eb|-------------------------------------------------|
  |
  |GTR II
eb|-------------------------------------------------|
Bb|-----5--------6p-5--3h-5-----5--------6p-5--3h-5-|
Gb|--5-----5p-4--------------5-----5p-4-------------|
Db|-------------------------------------------------|
Ab|-------------------------------------------------|
Eb|-------------------------------------------------|

   GTR I,II,II
eb|-------------------------------------------------|
Bb|-------------------------------------------------|
Gb|-------------------------------------------------|
Db|--2-----2----------------------------------------|
Ab|--0-----0----------------------------------------|
Eb|-------------------------------------------------|
     .     .                          


| b  bend
| r  release bend
|trp triplet
|PH. pinch harmonic
|fbk feedback
| .  palm-mute
| /  slide up
| \  slide down
| h  hammer-on
| p  pull-off
| ~  vibrato
|(7) harmonic
| x  Mute note
===============================================================================





Comments


Popular Collective Soul tabs & chords
Shine Bass Tabs
December 1 Tabs
Gel  2 Tabs
Heaven Let Your Light Shine Down Tabs
Satellite Tabs
Shine 8 Tabs
Smashing Young Man Tabs
Counting The Days Ukulele
Fuzzy Ukulele
Ood Morning After All Ukulele


Song lyrics



↑ Back to top | Tablatures and chords are parodies/interpretations of the original songs. You may use it for private study, scholarship, research or language learning purposes only
© 2014 AZChords.com Contact us | Privacy policy | DMCA | Add/correct tabs | Request tabs | Top 50 tabs