» » »

After All Tabs (ver.1)

Artists:  A B C D E F G H I J K L M N O P Q R S T U V W X Y Z # 

After All Tabs (ver.1)

Collective Soul
Rating:
5/5 (2 votes)

Hard to play? Try these video lessons and learn fast.
                Collective Soul
                             
    
    This is my interpretation of Collective Soul's acoustic
    version of "After All."

Intro and Verse:
e|------------------------------------------------0--------|
B|----------------------------------------------1---1------|
G|--------------------------------------------2------------|
D|------2---2-2---2-2-2-----2---2-2---2-2-2-3--------------|
A|--3-3---3-----3-------3-3---3-----3----------------------|
E|---------------------------------------------------------|

e|-------------------3-------------------------------------|
B|-3h5---------------3----------------1---1----------------|
G|-------5-4-2-0-----0------------------2---2---2----------|
D|-------------------0------------2-----------0------------|
A|-------------------2----------0--------------------------|
E|-------------------3-------------------------------------|
                   We know...  burned...

e|---------1-----------0----------1------------------------|
B|-------1----1--------1----------1--------5----5h6-5------|
G|-----2--------2------0----------2----5h7---5--------5----|
D|---3------------3----2----------3------------------------|
A|-0-------------------3-----------------------------------|
E|---------------------------------------------------------|
   ...rainbow        Lately...  times...
                                      
e|--0----------1-------------------------------------------|
B|--1----------1------------5----5h6-5---------------------|
G|--0----------2--------5h7---5--------5-------------------|
D|--2----------3-------------------------------------------|
A|--3------------------------------------------------------|
E|---------------------------------------------------------|
   Maybe...   After All
   
   Bridge:
e|--6-----1------------------------------------------------|
B|--6-----1------------------------------------------------|
G|--7-----2------------------------------------------------|
D|--8-----3------------------5-5-5----------------5--------|
A|--8-----3--------7---7-7--------------7---7-7------------|
E|--6-----1---/8-8---8-----8-------/8-8---8-----8----------|
 ...hide safe

e|--6-----1-----------------0------------------------------|
B|--6-----1-----------------1------------------------------|
G|--7-----2-----------------0------------------------------|
D|--8-----3-----------------2------------------------------|
A|--8-----3-----------------3------------------------------|
E|--6-----1------------------------------------------------|
 ..know  nothing more here After All

Solo:
e|---------------------------------------------------------|
B|6-5-----------------------5-5---5-5------/6/8/10-8-10/12-|
G|5-5-----------------------6-5---6-5----------------------|
D|7-5-5-3-2-----------------7-5-5-7-5-5-3-2----------------|
A|----------3---------1/3~~~-------------------------------|
E|------------3-1-0-1--------------------------------------|
          
Play four times
e|---------------------------------------------------------|
B|-6-5-----------------------------------------------------|
G|-----5---------------------------------------------------|
D|-------5-3-2---------------------------------------------|
A|-------------3-------------------------------------------|
E|---------------3-1-0-1/8---------------------------------|

Ending riff: 
e|----------------------------------0----------------------|
B|---1---1------1--1-----1---1------1----------------------|
G|--2---0------2--0-----2---0----0--0----------------------|
D|-3---2---0--3--2---0-3---2----0---2----------------------|
A|----------------------------------3----------------------|
E|---------------------------------------------------------|

Let me know what you think
Send me your comments
            
Hard to play? Try these video lessons and learn fast. | Correct




comments powered by Disqus
↑ Back to top | Tablatures and chords are parodies/interpretations of the original songs. You may use it for private study, scholarship, research or language learning purposes only