>
 >
Keep On Lovin Me Baby

Keep On Lovin Me Baby Guitar Tabs

Colin James - Keep On Lovin Me Baby chords, tabs, tablatures, lyrics

Guitar lessons | Add/correct | Request | Top 50 tabs Artists:  A B C D E F G H I J K L M N O P Q R S T U V W X Y Z 0-9

Keep On Lovin Me Baby Guitar Tabs – Colin James

CD, Sheet music, Poster

Do you like Keep On Lovin Me Baby? Share with your friends now
Tabs
|--0--------------------0----------2-0h2p0---0---------0--------------------|
|----3(1/4)-0---------0---3(1/4)-0---------3---3-0---0-----3-0--------------|
|-------------2(full)------------------------------2(full)-----2(1/2)-2-0---|
|-------------------------------------------------------------------------2-|
|---------------------------------------------------------------------------|
|---------------------------------------------------------------------------|


|---77---77----77----77----------------------------------15(full).-12--------|
|---77---77----77----77----9(1/2)p7---9--7(1/4)-------12-----------12-15-12--|
|-9(fu)-9(fu)-9(fu)-9(fu)--9(1/2)p7---9--7(1/4)----14(1/4)-------------------|
|-----------------------------------9-----------9----------------------------|
|----------------------------------------------------------------------------|
|----------------------------------------------------------------------------|


|----------------------------------------------------------------12----------|
|-------------------------14----14-12--------------------------12----15-12---|
|--14(full)p12----12------14----14-12----12~~~---------------14(fu)-------14-|
|--------------14------X-----X--------14--------12----12-14------------------|
|--------------------------------------------------14------------------------|
|------------------------------------------------------------0--(0)----------|


|--------------------------------------0--------------0-----------2-0h2p0----|
|----------------------------------------3(1/4)-0---0-----3(1/4)0---------3--|
|-14-12-------2(Various pinchand whole notes)------------2(full)-------------|
|-------14-------------------------------------------------------------------|
|----------------------------------------------------------------------------|
|----------------------------------------------------------------------------|

|-0-----3(1/4)00---0---0h2p0---0---------0--------------0-00-0-00-0-00-0-00--|
|---3-0----------3--0--------3---3-0---0----3-0---------3/55-3/55-3/55-3/55--|
|------------------------------------2(1/2)-----2(1/2)2-0--------------------|
|---------------------------------------------------------2------------------|
|----------------------------------------------------------------------------|
|----------------------------------------------------------------------------|


|--7-7~~-7-7-------0---0----17(fu)---17(be&re) 15-------15----15---15------|
|--8-8~~-8-8---3---3-0-3---3-3-------------------17~~17~~--17----17....--17|
|--------------2-x-2---2-x-2-----------------------------------------------|
|--------------1-x-1---1-x-1-----------------------------------------------|
|--------------2-x-2-----x-2-----------------------------------------------|
|--------------------------------------------------------------------------|


|--17(be&re)-17-17(fu)~~---0-----------0------------2-0h2p0---0-------0----------------|
|---------------------------3(1/4)-0--0----3(1/4)-0---------3---3-0--0--3-0------------|
|------------------------------------2(fu)--------------------------2(fu)---2(1/2)-2---|
|--------------------------------------------------------------------------------------|
|--------------------------------------------------------------------------------------|
|--------------------------------------------------------------------------------------|


|--------------------------------------------------------------------------|
|--------------------------------------------------------------------------|
|-0------------------------------------------------------------------------|
|--2--0tr(2)---------------------------------------------------------------|
|--------------------------------------------------------------------------|
|--------------------------------------------------------------------------|





Comments


Popular Colin James tabs & chords
Better Way To Heaven Chords
Far Away Like A Radio Chords
Hide Chords
Into The Mystic Chords
Lost Again Chords
Stay 1 Chords
Just Came Back Tabs
Before The Dawn Ukulele
Better Way To Heaven Ukulele
Lost Again Ukulele


Song lyrics



↑ Back to top | Tablatures and chords are parodies/interpretations of the original songs. You may use it for private study, scholarship, research or language learning purposes only
© 2014 AZChords.com Contact us | Privacy policy | DMCA | Add/correct tabs | Request tabs | Top 50 tabs