» » »

Five Long Years Tabs (ver.1)

Artists:  A B C D E F G H I J K L M N O P Q R S T U V W X Y Z # 

Five Long Years Tabs (ver.1)

Colin James
Rating:
0/5 (0 votes)

Hard to play? Try these video lessons and learn fast.
                Colin James


tuned 1/2 step down


intro1
e|-------------------|
B|-----6--------6----|
G|-5---5----5---5----|
D|-5---3----5---3----|
A|-3---3----3---3----|
E|-------------------|

intro2
e|-------------------------------------------------|
B|----------6-6-6-6-----------6-6-6-6--8-8-8-8-----|
G|-5-5-5-5--5-5-5-5--5-5-5-5--5-5-5-5--7-7-7-7-----|
D|-5-5-5-5--3-3-3-3--5-5-5-5--3-3-3-3--5-5-5-5-----|
A|-3-3-3-3--3-3-3-3--3-3-3-3--3-3-3-3--5-5-5-5-----|
E|-------------------------------------------------|

verse
e|-----------------|
B|-----------------|
G|-5--2--------5---|
D|-5--2--3--5--5---|
A|-3--0--3--5--3---|
E|-------1--3------|

chorus
e|---------------------------|
B|---------------------------|
G|----5-----5-----5--3-------|
D|-3--5--3--5--3--5--3--5----|
A|-3--3--3--3--3--3--1--5----|
E|-1-----1-----1--------3----|

e|-----------------|
B|-----------------|
G|----5--2---------|
D|-3--5--2--3--5---|
A|-3--3--0--3--5---|
E|-1--------1--3---|

solo riff
e|----------|    |-------------|
B|----------|    |-------------|
G|-2--------|x3  |-7-----------|
D|-2--5--3--|then|-7--5--3-----|
A|-0--5--3--|this|-5--5--3-----|
E|----3--1--|    |----3--1-----|


a quick bit with chords....

C
Well I see ya
                         A
Holdin' hands with your lover
                             F
And you're makin' plans with each other
         G            C
It looks real good on you

C
Well don't worry
                             A
I didn't come to make things strange
                                   F
'Cause there's a reason that things change
          G             C  
There's nothin' we can do!


              F         C
And it's been five long years
             F             C
Since I've seen your lovely eyes
F              C
The girls have grown
Bb                             G
She sees right through my thin disguise
F                  
You know I still love you
C                  A
You knew I'd never change
               F                    G
And it's been five long years and I love you
           C
Just the same


When you see me
Do you remember the times when we travelled
South of the borderline when love was young
Time was on our side
We danced
In the Rio Grande
And we listened to all the Mexican bands
Singin' songs of love
When our hearts were young, yeah

And it's been five long years
Since I've seen your lovely eyes
The girls have grown
She sees right through my thin disguise
You know I still love you
You knew I'd never change
And it's been five long years and I love you
Just the same

Oh, yeah
Five long years
Five long years

guitar solo

Five long years
Since I've seen your lovely eyes
Things have changed
You see right through my thin disguise

She sees right through me, yeah!

You know I still love you
You knew I'd never change
And it's been five long years and I love you
Just the same
And it's been five long years and I love you
Just the same
And it's been five long years and I love you
Just the sa-a-a-a-a-me
Yes baby
Oh yeah
Five long years
Five long years



Sweet_inc
            
Hard to play? Try these video lessons and learn fast. | Correct




comments powered by Disqus
↑ Back to top | Tablatures and chords are parodies/interpretations of the original songs. You may use it for private study, scholarship, research or language learning purposes only