>
 >
Overkill

Overkill Guitar Tabs

Colin Hay - Overkill chords, tabs, tablatures, lyrics

Guitar lessons | Add/correct | Request | Top 50 tabs Artists:  A B C D E F G H I J K L M N O P Q R S T U V W X Y Z 0-9

Overkill Guitar Tabs – Colin Hay

CD, Sheet music, Poster

Do you like Overkill? Share with your friends now
ChordsChords v2Chords v3Chords v4Chords v5Chords v6Chords v7TabsTabs v2Tabs v3Tabs v4Ukulele

Colin Hay


Tuning: Drop D


Here is the acoustic version of Overkill as on the Man at Work album.

This includes two guitar parts and solo.

When playing the main guitar part on its own you may want to sound some of the beats 
indicated as muted, or fill out some of the chords with more notes, it's up to you.

This can be played in standard tuning if you prefer.  Just move any notes on the bottom 
string down 2 frets.  For example D|-4--| becomes E|-2--|.  But don't accidently hit the 
open E string when playing those D chords at the start of the verse phrases!


Have fun!



e|----------------|----------------|----------------|----------------|
B|----------------|----------------|----------------|----------------|
G|----------------|----------------|----------------|----------------|
D|-7-x-x-7-x-x-7--|-7-x-x-7-x-x-7--|-5-x-x-5-x-x-5--|-5-x-x-5-x-x-5--|
A|-5-x-x-5-x-x-5-0|-4-x-x-4-x-x-4-0|-3-x-x-3-x-x-3-0|-2-x-x-2-x-x-2-0|
D|----------------|----------------|----------------|----------------|

          I can't get to sleep               I think about the implications



e|----------------|----------------|----------------|----------------|
B|----------------|----------------|----------------|----------------|
G|----------------|----------------|----------------|----------------|
D|-7-x-x-7-x-x-7--|-7-x-x-7-x-x-7--|-5-x-x-5-x-x-5--|-5-x-x-5-x-x-5--|
A|-5-x-x-5-x-x-5-0|-4-x-x-4-x-x-4-0|-3-x-x-3-x-x-3-0|-2-x-x-2-x-x-2-0|
D|----------------|----------------|----------------|----------------|

          Of diving in too deep             And possibly the complications



e|----------------|----------------|----------------|----------------|
B|----------------|----------------|----------------|----------------|
G|----------------|----------------|----------------|----------------|
D|-7-x-x-7-x-x-7--|-7-x-x-7-x-x-7--|-5-x-x-5-x-x-5--|-5-x-x-5-x-x-5--|
A|-5-x-x-5-x-x-5-0|-4-x-x-4-x-x-4-0|-3-x-x-3-x-x-3-0|-2-x-x-2-x-x-2-0|
D|----------------|----------------|----------------|----------------|

          Especially at night                I worry over situations



e|----------------|----------------|----------------|----------------|
B|----------------|----------------|----------------|----------------|
G|----------------|----------------|----------------|----------------|
D|-7-x-x-7-x-x-7--|-7-x-x-7-x-x-7--|-5-x-x-5-x-x-5--|-5-x-x-5-x-x-5--|
A|-5-x-x-5-x-x-5-0|-4-x-x-4-x-x-4-0|-3-x-x-3-x-x-3-0|-2-x-x-2-x-x-2-0|
D|----------------|----------------|----------------|----------------|

          I know we'll be alright           Perhaps it's just imagination


e|----------------|----------------|----------------|----------------|
B|----------------|----------------|-------3--------|-2-----2-3-2-0--|
G|-------0--------|-0--------------|-2-----2-----2--|-2-----2-2-2-2-2|
D|-4-x-x-4-x-x-4--|-4-x-x-4-x-x-4--|-2-----2-----2--|-2-----2-2-2-2-2|
A|-2-x-x-2-x-x-2-0|-2-x-x-2-x-x-2-0|-0-x-x-0-x-x-0-0|-0-x-x-0-0-0-0-0|
D|----------------|----------------|----------------|----------------|

           Day after day it reappears



e|----------------|----------------|----------------|----------------|
B|----------------|----------------|-3-----3-----3--|-2-----2--------|
G|-------0--------|----------------|-2-----2-----2--|-2-----2-----2--|
D|-4-x-x-4-x-x-4--|-4-x-x-4-x-x-4--|-2-----2-----2--|-2-----2-----2--|
A|-2-x-x-2-x-x-2-0|-2-x-x-2-x-x-2-0|-0-x-x-0-x-x-0-0|-0-x-x-0-x-x-0-0|
D|----------------|----------------|----------------|----------------|

         Night after night my heartbeat shows the fear



e|----------------|----------------|----------------|----------------|
B|----------------|----------------|----------------|----------------|
G|-4-x-x-4-x-x-4--|-3-x-x-3-x-x-3--|-0-x-x-0-x-x-0--|-0-x-x-0-x-x-0--|
D|-2-x-x-2-x-x-2--|-2-x-x-2-x-x-2--|-0-x-x-0-x-x-0--|-0-x-x-0-x-x-0--|
A|----------------|----------------|----------------|----------------|
D|-4-x-x-4-x-x-4--|-4-x-x-4-x-x-4--|-5-x-x-5-x-x-5--|-5-x-x-5-x-x-5--|

   Ghosts       appear and fade      away



e|----------------|----------------|
B|-------3-----3--|-------2-3-2-0--|
G|-2-----2-----2--|-------2-2-2-2-2|
D|-2-----2-----2--|-2-----2-2-2-2-2|
A|-0-x-x-0-x-x-0--|-0-x-x-0-0-0-0--|
D|----------------|----------------|



e|----------------|----------------|----------------|----------------|
B|----------------|----------------|----------------|----------------|
G|----------------|----------------|----------------|----------------|
D|-7-x-x-7-x-x-7--|-7-x-x-7-x-x-7--|-5-x-x-5-x-x-5--|-5-x-x-5-x-x-5--|
A|-5-x-x-5-x-x-5-0|-4-x-x-4-x-x-4-0|-3-x-x-3-x-x-3-0|-2-x-x-2-x-x-2-0|
D|----------------|----------------|----------------|----------------|
 |                                                                   |
e|---5------------|---5------------|---3------------|---3------------|
B|-------7--------|-------7--------|-------5--------|-------5--------|
G|-7--------------|-6--------------|-5--------------|-4--------------|
D|-----------5-5-5|----------------|-----5-----5-5-5|----------------|
A|----------------|----------------|----------------|----------------|
D|----------------|----------------|----------------|----------------|

         Alone between the sheets            Only brings exasperation


e|----------------|----------------|----------------|----------------|
B|----------------|----------------|----------------|----------------|
G|----------------|----------------|----------------|----------------|
D|-7-x-x-7-x-x-7--|-7-x-x-7-x-x-7--|-5-x-x-5-x-x-5--|-5-x-x-5-x-x-5--|
A|-5-x-x-5-x-x-5-0|-4-x-x-4-x-x-4-0|-3-x-x-3-x-x-3-0|-2-x-x-2-x-x-2-0|
D|----------------|----------------|----------------|----------------|
 |                                                                   |
e|---5------------|---5------------|---3------------|---3------------|
B|-------7--------|-------7--------|-------5--------|-------5--------|
G|-7--------------|-6--------------|-5--------------|-4--------------|
D|-----------5-5-5|----------------|-----5-----5-5-5|----------------|
A|----------------|----------------|----------------|----------------|
D|----------------|----------------|----------------|----------------|

          It's time to walk the streets      Smell the desperation



e|----------------|----------------|----------------|----------------|
B|----------------|----------------|----------------|----------------|
G|----------------|----------------|----------------|----------------|
D|-7-x-x-7-x-x-7--|-7-x-x-7-x-x-7--|-5-x-x-5-x-x-5--|-5-x-x-5-x-x-5--|
A|-5-x-x-5-x-x-5-0|-4-x-x-4-x-x-4-0|-3-x-x-3-x-x-3-0|-2-x-x-2-x-x-2-0|
D|----------------|----------------|----------------|----------------|
 |                                                                   |
e|---5------------|---5------------|---3------------|---3------------|
B|-------7--------|-------7--------|-------5--------|-------5--------|
G|-7--------------|-6--------------|-5--------------|-4--------------|
D|-----------5-5-5|----------------|-----5----------|----------------|
A|----------------|----------------|----------------|----------------|
D|----------------|----------------|----------------|----------------|

     At least there's pretty lights     And though there's little variation


e|----------------|----------------|----------------|----------------|
B|----------------|----------------|----------------|----------------|
G|----------------|----------------|----------------|----------------|
D|-7-x-x-7-x-x-7--|-7-x-x-7-x-x-7--|-5-x-x-5-x-x-5--|-5-x-x-5-x-x-5--|
A|-5-x-x-5-x-x-5-0|-4-x-x-4-x-x-4-0|-3-x-x-3-x-x-3-0|-2-x-x-2-x-x-2-0|
D|----------------|----------------|----------------|----------------|
 |                                                                   |
e|---5------------|---5------------|---3------------|---3------------|
B|-------7--------|-------7--------|-------5--------|-------5--------|
G|-7--------------|-6--------------|-5--------------|-4--------------|
D|-----------5-5-5|----------------|-----5----------|----------------|
A|----------------|----------------|----------------|----------------|
D|----------------|----------------|----------------|----------------|

          It nullifies the night             From overkill



e|----------------|----------------|----------------|----------------|
B|----------------|----------------|-------3--------|-2-----2-3-2-0--|
G|-------0--------|-0--------------|-2-----2-----2--|-2-----2-2-2-2-2|
D|-4-x-x-4-x-x-4--|-4-x-x-4-x-x-4--|-2-----2-----2--|-2-----2-2-2-2-2|
A|-2-x-x-2-x-x-2-0|-2-x-x-2-x-x-2-0|-0-x-x-0-x-x-0-0|-0-x-x-0-0-0-0-0|
D|----------------|----------------|----------------|----------------|
 |                                                                   |
e|----------------|----------------|----------------|----------------|
B|-------3--------|----------------|-3--------------|-2--------------|
G|-----0----------|-0--------------|-2--------------|-2--------------|
D|---4------------|-4--------------|-2--------------|-2--------------|
A|-2--------------|-2--------------|-0--------------|-0--------------|
D|----------------|----------------|----------------|----------------|

            Day after day it reappears



e|----------------|----------------|----------------|----------------|
B|----------------|----------------|-3-----3-----3--|-2-----2--------|
G|-------0--------|----------------|-2-----2-----2--|-2-----2-----2--|
D|-4-x-x-4-x-x-4--|-4-x-x-4-x-x-4--|-2-----2-----2--|-2-----2-----2--|
A|-2-x-x-2-x-x-2-0|-2-x-x-2-x-x-2-0|-0-x-x-0-x-x-0-0|-0-x-x-0-x-x-0-0|
D|----------------|----------------|----------------|----------------|
 |                                                                   |
e|----------------|----------------|----------------|----------------|
B|-------3--------|----------------|-3--------------|-2--------------|
G|-----0----------|----------------|-2--------------|-2--------------|
D|---4------------|----------------|-2--------------|-2--------------|
A|-2--------------|----------------|-0--------------|-0--------------|
D|----------------|----------------|----------------|----------------|

         Night after night my heartbeat shows the fear



e|----------------|----------------|----------------|----------------|
B|----------------|----------------|----------------|----------------|
G|-4-x-x-4-x-x-4--|-3-x-x-3-x-x-3--|-0-x-x-0-x-x-0--|-0-x-x-0-x-x-0--|
D|-2-x-x-2-x-x-2--|-2-x-x-2-x-x-2--|-0-x-x-0-x-x-0--|-0-x-x-0-x-x-0--|
A|----------------|----------------|----------------|----------------|
D|-4-x-x-4-x-x-4--|-4-x-x-4-x-x-4--|-5-x-x-5-x-x-5--|-5-x-x-5-x-x-5--|
 |                                                                   |
e|----------------|----------------|----------------|----------------|
B|----------------|----------------|----------------|----------------|
G|-4--------------|-3--------------|-0--------------|----------------|
D|-2--------------|-2--------------|-0--------------|----------------|
A|----------------|----------------|-2--------------|----------------|
D|-4--------------|-4--------------|-5--------------|----------------|

   Ghosts       appear and fade      away



e|----------------|----------------|
B|-------3-----3--|-------2-3-2-0--|
G|-2-----2-----2--|-------2-2-2-2-2|
D|-2-----2-----2--|-2-----2-2-2-2-2|
A|-0-x-x-0-x-x-0--|-0-x-x-0-0-0-0--|
D|----------------|----------------|
 |                                 |
e|----------------|----------------|
B|-3--------------|-2--------------|
G|-2--------------|-2--------------|
D|-2--------------|-2--------------|
A|-0--------------|-0--------------|
D|----------------|----------------|

     Come back another day



e|----------------|----------------|----------------|----------------|
B|----------------|----------------|----------------|----------------|
G|----------------|----------------|----------------|----------------|
D|-7-x-x-7-x-x-7--|-7-x-x-7-x-x-7--|-5-x-x-5-x-x-5--|-5-x-x-5-x-x-5--|
A|-5-x-x-5-x-x-5-0|-4-x-x-4-x-x-4-0|-3-x-x-3-x-x-3-0|-2-x-x-2-x-x-2-0|
D|----------------|----------------|----------------|----------------|
 |                                                                   |
e|---5------------|---5------------|---3------------|---3------------|
B|-------7--------|-------7--------|-------5--------|-------5--------|
G|-7--------------|-6--------------|-5--------------|-4--------------|
D|-----------5-5-5|----------------|-----5-----5-5-5|----------------|
A|----------------|----------------|----------------|----------------|
D|----------------|----------------|----------------|----------------|
 |                                                                   |
e|----------------|----------------|----------------|----------------|
B|-3---------3/5-3|-2-------------0|-0h1-------1/3-1|-0--------------|
G|----------------|-----------2----|----------------|-----------2-0--|
D|----------------|----------------|----------------|---------------4|
A|----------------|----------------|----------------|----------------|
D|----------------|----------------|----------------|----------------|


e|----------------|----------------|----------------|----------------|
B|----------------|----------------|----------------|----------------|
G|----------------|----------------|----------------|----------------|
D|-7-x-x-7-x-x-7--|-7-x-x-7-x-x-7--|-5-x-x-5-x-x-5--|-5-x-x-5-x-x-5--|
A|-5-x-x-5-x-x-5-0|-4-x-x-4-x-x-4-0|-3-x-x-3-x-x-3-0|-2-x-x-2-x-x-2-0|
D|----------------|----------------|----------------|----------------|
 |                                                                   |
e|---5------------|---5------------|---3------------|---3------------|
B|-------7--------|-------7--------|-------5--------|-------5--------|
G|-7--------------|-6--------------|-5--------------|-4--------------|
D|-----------5-5-5|----------------|-----5-----5-5-5|----------------|
A|----------------|----------------|----------------|----------------|
D|----------------|----------------|----------------|----------------|
 |                                                                   |
e|----------------|----------------|----------------|----------------|
B|----------------|----------------|-------3/5-3----|--------5\3----2|
G|----------------|----------------|---2---2/4-2----|---2/4----------|
D|-------4-540---0|20---0-0--------|---2------------|----------------|
A|-------------02-|---2-----2---0--|----------------|----------------|
D|----------------|----------------|----------------|----------------|



e|----------------|----------------|----------------|----------------|
B|----------------|----------------|----------------|----------------|
G|----------------|----------------|----------------|----------------|
D|-7-x-x-7-x-x-7--|-7-x-x-7-x-x-7--|-5-x-x-5-x-x-5--|-5-x-x-5-x-x-5--|
A|-5-x-x-5-x-x-5-0|-4-x-x-4-x-x-4-0|-3-x-x-3-x-x-3-0|-2-x-x-2-x-x-2-0|
D|----------------|----------------|----------------|----------------|
 |                                                                   |
e|---5------------|---5------------|---3------------|---3------------|
B|-------7--------|-------7--------|-------5--------|-------5--------|
G|-7--------------|-6--------------|-5--------------|-4--------------|
D|-----------5-5-5|----------------|-----5-----5-5-5|----------------|
A|----------------|----------------|----------------|----------------|
D|----------------|----------------|----------------|----------------|
 |                                                                   |
e|----------------|----------------|----------------|----------------|
B|-----3----------|----------------|----------------|----------------|
G|-------2-----4--|----------------|----------------|----------------|
D|---------------2|-----4----------|-----------0----|----------------|
A|----------------|-------2p0------|---0---2-3-----3|-2---------0----|
D|----------------|----------------|----------------|-------------5-4|



e|----------------|----------------|----------------|----------------|
B|----------------|----------------|----------------|----------------|
G|----------------|----------------|----------------|----------------|
D|-7-x-x-7-x-x-7--|-7-x-x-7-x-x-7--|-5-x-x-5-x-x-5--|-5-x-x-5-x-x-5--|
A|-5-x-x-5-x-x-5-0|-4-x-x-4-x-x-4-0|-3-x-x-3-x-x-3-0|-2-x-x-2-x-x-2-0|
D|----------------|----------------|----------------|----------------|
 |                                                                   |
e|---5------------|---5------------|---3------------|---3------------|
B|-------7--------|-------7--------|-------5--------|-------5--------|
G|-7--------------|-6--------------|-5--------------|-4--------------|
D|-----------5-5-5|----------------|-----5-----5-5-5|----------------|
A|----------------|----------------|----------------|----------------|
D|----------------|----------------|----------------|----------------|
 |                                                                              |
e|----------------|-----------0-2-3|-5-7-9-10-12-10-12-/14|--14-12p10--10-10----|
B|----------------|-----0-2-3------|----------------------|----------12-----12--|
G|----------------|-0-2------------|----------------------|---------------------|
D|-----------0-2-4|----------------|----------------------|---------------------|
A|-----0-2-4------|----------------|----------------------|---------------------|
D|---5------------|----------------|----------------------|---------------------|

[I had to stretch these bars to fit in the double digit frets. Listen for timing]



e|----------------|----------------|----------------|----------------|
B|----------------|----------------|-------3--------|-2-----2-3-2-0--|
G|-------0--------|-0--------------|-2-----2-----2--|-2-----2-2-2-2-2|
D|-4-x-x-4-x-x-4--|-4-x-x-4-x-x-4--|-2-----2-----2--|-2-----2-2-2-2-2|
A|-2-x-x-2-x-x-2-0|-2-x-x-2-x-x-2-0|-0-x-x-0-x-x-0-0|-0-x-x-0-0-0-0-0|
D|----------------|----------------|----------------|----------------|
 |                                                                   |
e|----------------|----------------|----------------|----------------|
B|-------3--------|----------------|-3--------------|-2--------------|
G|-----0----------|-0--------------|-2--------------|-2--------------|
D|---4------------|-4--------------|-2--------------|-2--------------|
A|-2--------------|-2--------------|-0--------------|-0--------------|
D|----------------|----------------|----------------|----------------|
 |                                                                   |
e|------10-10--9-7|-5--------------|----------------|----------------|
B|------12-12-10-8|-7--------------|-------3-----5-2|----------------|
G|----------------|----------------|-----------2----|----------------|
D|----------------|----------------|----------------|----------------|
A|----------------|----------------|----------------|----------------|
D|----------------|----------------|----------------|----------------|




e|----------------|----------------|----------------|----------------|
B|----------------|----------------|----------------|----------------|
G|-4-x-x-4-x-x-4--|-3-x-x-3-x-x-3--|-0-x-x-0-x-x-0--|-0-x-x-0-x-x-0--|
D|-2-x-x-2-x-x-2--|-2-x-x-2-x-x-2--|-0-x-x-0-x-x-0--|-0-x-x-0-x-x-0--|
A|----------------|----------------|----------------|----------------|
D|-4-x-x-4-x-x-4--|-4-x-x-4-x-x-4--|-5-x-x-5-x-x-5--|-5-x-x-5-x-x-5--|
 |                                                                   |
e|----------------|----------------|----------------|----------------|
B|----------------|----------------|----------------|----------------|
G|-4--------------|-3--------------|-0--------------|----------------|
D|-2--------------|-2--------------|-0--------------|----------------|
A|----------------|----------------|-2--------------|----------------|
D|-4--------------|-4--------------|-5--------------|----------------|
 |                                                                   |
e|----------------|----------------|----------------|----------------|
B|-------0-----2--|------------0--2|2/3-------------|----------------|
G|---------------3|---------3------|----------------|----------------|
D|-----------4----|----------------|----------------|----------------|
A|----------------|----------------|----------------|----------------|
D|----------------|----------------|----------------|----------------|





e|----------------|----------------|----------------|----------------|
B|----------------|----------------|----------------|----------------|
G|----------------|----------------|----------------|----------------|
D|-7-x-x-7-x-x-7--|-7-x-x-7-x-x-7--|-5-x-x-5-x-x-5--|-5-x-x-5-x-x-5--|
A|-5-x-x-5-x-x-5-0|-4-x-x-4-x-x-4-0|-3-x-x-3-x-x-3-0|-2-x-x-2-x-x-2-0|
D|----------------|----------------|----------------|----------------|
 |                                                                   |
e|---5------------|---5------------|---3------------|---3------------|
B|-------7--------|-------7--------|-------5--------|-------5--------|
G|-7--------------|-6--------------|-5--------------|-4--------------|
D|-----------5-5-5|----------------|-----5-----5-5-5|----------------|
A|----------------|----------------|----------------|----------------|
D|----------------|----------------|----------------|----------------|

          I can't get to sleep               I think about the implications


e|----------------|----------------|----------------|----------------|
B|----------------|----------------|----------------|----------------|
G|----------------|----------------|----------------|----------------|
D|-7-x-x-7-x-x-7--|-7-x-x-7-x-x-7--|-5-x-x-5-x-x-5--|-5-x-x-5-x-x-5--|
A|-5-x-x-5-x-x-5-0|-4-x-x-4-x-x-4-0|-3-x-x-3-x-x-3-0|-2-x-x-2-x-x-2-0|
D|----------------|----------------|----------------|----------------|
 |                                                                   |
e|---5------------|---5------------|---3------------|---3------------|
B|-------7--------|-------7--------|-------5--------|-------5--------|
G|-7--------------|-6--------------|-5--------------|-4--------------|
D|-----------5-5-5|----------------|-----5-----5-5-5|----------------|
A|----------------|----------------|----------------|----------------|
D|----------------|----------------|----------------|----------------|

          Of diving in too deep             And possibly the complications



e|----------------|----------------|----------------|----------------|
B|----------------|----------------|----------------|----------------|
G|----------------|----------------|----------------|----------------|
D|-7-x-x-7-x-x-7--|-7-x-x-7-x-x-7--|-5-x-x-5-x-x-5--|-5-x-x-5-x-x-5--|
A|-5-x-x-5-x-x-5-0|-4-x-x-4-x-x-4-0|-3-x-x-3-x-x-3-0|-2-x-x-2-x-x-2-0|
D|----------------|----------------|----------------|----------------|
 |                                                                   |
e|---5------------|---5------------|---3------------|---3------------|
B|-------7--------|-------7--------|-------5--------|-------5--------|
G|-7--------------|-6--------------|-5--------------|-4--------------|
D|-----------5-5-5|----------------|-----5----------|----------------|
A|----------------|----------------|----------------|----------------|
D|----------------|----------------|----------------|----------------|

          Especially at night                I worry over situations



e|----------------|----------------|----------------|----------------|
B|----------------|----------------|----------------|----------------|
G|----------------|----------------|----------------|----------------|
D|-7-x-x-7-x-x-7--|-7-x-x-7-x-x-7--|-5-x-x-5-x-x-5--|-5-x-x-5-x-x-5--|
A|-5-x-x-5-x-x-5-0|-4-x-x-4-x-x-4-0|-3-x-x-3-x-x-3-0|-2-x-x-2-x-x-2-0|
D|----------------|----------------|----------------|----------------|
 |                                                                   |
e|---5------------|---5------------|---3------------|---3------------|
B|-------7--------|-------7--------|-------5--------|-------5--------|
G|-7--------------|-6--------------|-5--------------|-4--------------|
D|-----------5-5-5|----------------|-----5----------|----------------|
A|----------------|----------------|----------------|----------------|
D|----------------|----------------|----------------|----------------|

          I know we'll be alright           It's just overkill



e|----------------|----------------|----------------|----------------|
B|----------------|----------------|-------3--------|-2-----2-3-2-0--|
G|-------0--------|-0--------------|-2-----2-----2--|-2-----2-2-2-2-2|
D|-4-x-x-4-x-x-4--|-4-x-x-4-x-x-4--|-2-----2-----2--|-2-----2-2-2-2-2|
A|-2-x-x-2-x-x-2-0|-2-x-x-2-x-x-2-0|-0-x-x-0-x-x-0-0|-0-x-x-0-0-0-0-0|
D|----------------|----------------|----------------|----------------|
 |                                                                   |
e|----------------|----------------|----------------|----------------|
B|-------3--------|----------------|-3--------------|-2--------------|
G|-----0----------|-0--------------|-2--------------|-2--------------|
D|---4------------|-4--------------|-2--------------|-2--------------|
A|-2--------------|-2--------------|-0--------------|-0--------------|
D|----------------|----------------|----------------|----------------|

            Day after day it reappears



e|----------------|----------------|----------------|----------------|
B|----------------|----------------|-3-----3-----3--|-2-----2--------|
G|-------0--------|----------------|-2-----2-----2--|-2-----2-----2--|
D|-4-x-x-4-x-x-4--|-4-x-x-4-x-x-4--|-2-----2-----2--|-2-----2-----2--|
A|-2-x-x-2-x-x-2-0|-2-x-x-2-x-x-2-0|-0-x-x-0-x-x-0-0|-0-x-x-0-x-x-0-0|
D|----------------|----------------|----------------|----------------|
 |                                                                   |
e|----------------|----------------|----------------|----------------|
B|-------3--------|----------------|-3--------------|-2--------------|
G|-----0----------|----------------|-2--------------|-2--------------|
D|---4------------|----------------|-2--------------|-2--------------|
A|-2--------------|----------------|-0--------------|-0--------------|
D|----------------|----------------|----------------|----------------|

         Night after night my heartbeat shows the fear



e|----------------|----------------|----------------|----------------|
B|----------------|----------------|----------------|----------------|
G|-4-x-x-4-x-x-4--|-3-x-x-3-x-x-3--|-0-x-x-0-x-x-0--|-0-x-x-0-x-x-0--|
D|-2-x-x-2-x-x-2--|-2-x-x-2-x-x-2--|-0-x-x-0-x-x-0--|-0-x-x-0-x-x-0--|
A|----------------|----------------|----------------|----------------|
D|-4-x-x-4-x-x-4--|-4-x-x-4-x-x-4--|-5-x-x-5-x-x-5--|-5-x-x-5-x-x-5--|
 |                                                                   |
e|----------------|----------------|----------------|----------------|
B|----------------|----------------|----------------|----------------|
G|-4--------------|-3--------------|-0--------------|----------------|
D|-2--------------|-2--------------|-0--------------|----------------|
A|----------------|----------------|-2--------------|----------------|
D|-4--------------|-4--------------|-5--------------|----------------|

  Ghosts        appear    and fade   away



e|----------------|----------------|----------------|----------------|
B|----------------|----------------|----------------|----------------|
G|-4-x-x-4-x-x-4--|-3-x-x-3-x-x-3--|-0-x-x-0-x-x-0--|-0-x-x-0-x-x-0--|
D|-2-x-x-2-x-x-2--|-2-x-x-2-x-x-2--|-0-x-x-0-x-x-0--|-0-x-x-0-x-x-0--|
A|----------------|----------------|----------------|----------------|
D|-4-x-x-4-x-x-4--|-4-x-x-4-x-x-4--|-5-x-x-5-x-x-5--|-5-x-x-5-x-x-5--|
 |                                                                   |
e|----------------|----------------|----------------|----------------|
B|----------------|----------------|----------------|----------------|
G|-4--------------|-3--------------|-0--------------|----------------|
D|-2--------------|-2--------------|-0--------------|----------------|
A|----------------|----------------|-2--------------|----------------|
D|-4--------------|-4--------------|-5--------------|----------------|

  Ghosts        appear    and fade   away



e|----------------|----------------|----------------|----------------|
B|----------------|----------------|----------------|----------------|
G|-4-------4------|-3-------3------|------------0---|----------------|
D|-2-------2------|-2-------2------|---------0------|----------------|
A|----------------|----------------|------2---------|----------------|
D|-4-------4------|-4-------4------|---5------------|-5--------------|
 |                                                                   |
e|----------------|----------------|----------------|----------------|
B|----------------|----------------|----------------|----------------|
G|-4--------------|----------------|----------------|----------------|
D|-2--------------|----------------|----------------|----------------|
A|----------------|----------------|----------------|----------------|
D|-4--------------|----------------|----------------|----------------|

  Ghosts        appear  and fade    away




************************************

| /   slide up
| \   slide down
| h   hammer-on
| p   pull-off
| x   Mute note
| b   Bend

************************************



------------------------------------------------------------------------


This is how I sometimes like to play the song.  It is a hybrid of the two guitar parts 
and similar to an arrangement Colin Hay has used.

It's nice to occasionally hit that low D string (instead of the D on the A string 5th 
fret) for emphasis at the start of some phrases.  But be sure to stop it from ringing over 
the C on the A string 3rd fret.


e|----------------|----------------|----------------|----------------|
B|-------7--------|-------7--------|-------5--------|-------5--------|
G|-----0-----0----|-----0-----0----|-----0-----0----|-----0-----0----|
D|---7---------7--|---7---------7--|---5---------5--|---5---------5--|
A|-5-------5-----0|-4-------4-----0|-3-------3-----0|-2-------2-----2|
D|----------------|----------------|----------------|----------------|

          I can't get to sleep               I think about the implications


e|----------------|----------------|----------------|----------------|
B|-------7--------|-------7--------|-------5--------|-------5--------|
G|-----0-----0----|-----0-----0----|-----0-----0----|-----0-----0----|
D|---7---------7--|---7---------7--|---5---------5--|---5---------5--|
A|-5-------5-----0|-4-------4-----0|-3-------3-----0|-2-------2-----2|
D|----------------|----------------|----------------|----------------|

          Of diving in too deep             And possibly the complications


e|----------------|----------------|----------------|----------------|
B|-------7--------|-------7--------|-------5--------|-------5--------|
G|-----0-----0----|-----0-----0----|-----0-----0----|-----0-----0----|
D|---7---------7--|---7---------7--|---5---------5--|---5---------5--|
A|-5-------5-----0|-4-------4-----0|-3-------3-----0|-2-------2-----2|
D|----------------|----------------|----------------|----------------|

          Especially at night                I worry over situations


e|----------------|----------------|----------------|----------------|
B|-------7--------|-------7--------|-------5--------|-------5--------|
G|-----0-----0----|-----0-----0----|-----0-----0----|-----0-----0----|
D|---7---------7--|---7---------7--|---5---------5--|---5---------5--|
A|---------5-----0|-4-------4-----0|-3-------3-----0|-2-------2-----2|
D|-0--------------|----------------|----------------|----------------|

          I know we'll be alright           Perhaps it's just imagination


e|----------------|----------------|----------------|----------------|
B|-------3--------|-------3--------|-----2---3-2---0|-2-----2-3-2-0--|
G|-----0-----0----|-----0-----0----|-----2---2-2---2|-2-----2-2-2-2-2|
D|---4---------4--|---4---------4--|---2------------|-----2----------|
A|-2-------2-----2|-2-------2-----2|-0--------------|---0------------|
D|----------------|----------------|----------------|----------------|

           Day after day it reappears


e|----------------|----------------|----------------|----------------|
B|-------3--------|-------3--------|-------3--------|-------2--------|
G|-----0-----0----|-----0-----0----|-----2-----2----|-----2-----2----|
D|---4---------4--|---4---------4--|---2---------2--|---2---------2--|
A|-2-------2-----2|-2-------2-----2|-0-------0-----0|-0-------0-----0|
D|----------------|----------------|----------------|----------------|

         Night after night my heartbeat shows the fear


e|----------------|----------------|----------------|----------------|
B|-------2--------|-------2--------|-------3--------|-------3--------|
G|-----4-----4----|-----3-----3----|-----0-----0----|-----0-----0----|
D|---2---------2--|---2---------2--|---0---------0--|---0---------0--|
A|----------------|----------------|----------------|----------------|
D|-4-------4-----4|-4-------4-----4|-5-------5-----5|-5-------5-----5|

   Ghosts       appear and fade      away


e|----------------|----------------|
B|-------3--------|-------2--------|
G|-----2-----2----|-----2-----2----|
D|---2---------2--|---2---------2--|
A|-0-------0-----0|-0-------0-----0|
D|----------------|----------------|



e|----------------|----------------|----------------|----------------|
B|-------7--------|-------7--------|-------5--------|-------5--------|
G|-----0-----0----|-----0-----0----|-----0-----0----|-----0-----0----|
D|---7---------7--|---7---------7--|---5---------5--|---5---------5--|
A|---------5-----5|-4-------4-----4|-3-------3-----3|-2-------2-----2|
D|-0--------------|----------------|----------------|----------------|

         Alone between the sheets            Only brings exasperation


e|----------------|----------------|----------------|----------------|
B|-------7--------|-------7--------|-------5--------|-------5--------|
G|-----0-----0----|-----0-----0----|-----0-----0----|-----0-----0----|
D|---7---------7--|---7---------7--|---5---------5--|---5---------5--|
A|-5-------5-----5|-4-------4-----4|-3-------3-----3|-2-------2-----2|
D|----------------|----------------|----------------|----------------|

          It's time to walk the streets      Smell the desperation


e|----------------|----------------|----------------|----------------|
B|-------7--------|-------7--------|-------5--------|-------5--------|
G|-----0-----0----|-----0-----0----|-----0-----0----|-----0-----0----|
D|---7---------7--|---7---------7--|---5---------5--|---5---------5--|
A|-5-------5-----5|-4-------4-----4|-3-------3-----3|-2-------2-----2|
D|----------------|----------------|----------------|----------------|

     At least there's pretty lights     And though there's little variation


e|----------------|----------------|----------------|----------------|
B|-------7--------|-------7--------|-------5--------|-------5--------|
G|-----0-----0----|-----0-----0----|-----0-----0----|-----0-----0----|
D|---7---------7--|---7---------7--|---5---------5--|---5---------5--|
A|-5-------5-----5|-4-------4-----4|-3-------3-----3|-2-------2-----2|
D|----------------|----------------|----------------|----------------|

          It nullifies the night             From overkill


e|----------------|----------------|----------------|----------------|
B|-------3--------|-------3--------|-----2---3-2---0|-2-----2-3-2-0--|
G|-----0-----0----|-----0-----0----|-----2---2-2---2|-2-----2-2-2-2-2|
D|---4---------4--|---4---------4--|---2------------|-----2----------|
A|-2-------2-----2|-2-------2-----2|-0--------------|---0------------|
D|----------------|----------------|----------------|----------------|

            Day after day it reappears


e|----------------|----------------|----------------|----------------|
B|-------3--------|-------3--------|-------3--------|-------2--------|
G|-----0-----0----|-----0-----0----|-----2-----2----|-----2-----2----|
D|---4---------4--|---4---------4--|---2---------2--|---2---------2--|
A|-2-------2-----2|-2-------2-----2|-0-------0-----0|-0-------0-----0|
D|----------------|----------------|----------------|----------------|

         Night after night my heartbeat shows the fear


e|----------------|----------------|----------------|----------------|
B|-------2--------|-------2--------|-------3--------|-------3--------|
G|-----4-----4----|-----3-----3----|-----0-----0----|-----0-----0----|
D|---2---------2--|---2---------2--|---0---------0--|---0---------0--|
A|----------------|----------------|----------------|----------------|
D|-4-------4-----4|-4-------4-----4|-5-------5-----5|-5-------5-----5|

   Ghosts       appear and fade      away



e|----------------|----------------|----------------|----------------|
B|-------2--------|-------2--------|-------3--------|----------------|
G|-----4-----4----|-----3-----3----|-----0---0------|----------------|
D|---2---------2--|---2---------2--|---0------------|----------------|
A|----------------|----------------|----------------|----------------|
D|-4-------4-----4|-4-------4-----4|-5--------------|----------------|

   Ghosts       appear and fade      away





Comments


Popular Colin Hay tabs & chords
Against The Tide Chords
Down Under 2 Chords
Go Ask An Old Man Chords
Here In My Hometown Chords
I Dont Miss You Now Chords
Lifeline Chords
Overkill 6 Chords
Dont Believe You Anymore Ukulele
Ooh Ooh Ooh Ooh Baby Ukulele
Who Can It Be Now Ukulele


Song lyrics



↑ Back to top | Tablatures and chords are parodies/interpretations of the original songs. You may use it for private study, scholarship, research or language learning purposes only
© 2014 AZChords.com Contact us | Privacy policy | DMCA | Add/correct tabs | Request tabs | Top 50 tabs