>
 >
Unforgettable

Unforgettable Bass Tabs

Cole Nat King - Unforgettable chords, tabs, tablatures, lyrics

Guitar lessons | Add/correct | Request | Top 50 tabs Artists:  A B C D E F G H I J K L M N O P Q R S T U V W X Y Z 0-9

Unforgettable Bass Tabs – Cole Nat King

CD, Sheet music, Poster

Do you like Unforgettable? Share with your friends now
Bass Tabs
Nat King Cole - Unforgettable

TablEdited by Jan Bjorklund   
You are welcome to request for tabs!
Fingering and positions as suggested by TablEdit, please use common sense.
 
Tuning : E A D G 	Time Signature: 4/4

 |       |       |       |        |       |       |       |        
|------------------------5-------|--------------------------------|
|3-------------------------------|--------------------------------|
|--------------------------------|------------------------3-------|
|--------------------------------|--------------------------------|

 |       |       |       |        |       |       |       |        
|5---------------4---------------|3-----------3---5---------------|
|--------------------------------|--------------------------------|
|--------------------------------|------------------------3-------|
|--------------------------------|--------------------------------|

 |       |       |       |        |       |       |       |        
|--------------------------------|--------------------------------|
|--------------------------------|3-------------------------------|
|----------------3---------------|--------------------------------|
|1-------------------------------|----------------1---------------|

 |       |       |       |        |       |       |       |        
|----------------1---------------|----------------1---------------|
|--------------------------------|--------------------------------|
|--------------------------------|--------------------------------|
|4-------------------------------|4-------------------------------|

 |       |       |       |        |       |       |       |        
|----------------0---------------|----------------0---------------|
|--------------------------------|--------------------------------|
|--------------------------------|--------------------------------|
|3-------------------------------|3-------------------------------|

 |       |       |       |        |       |       |       |        
|--------------------------------|0-----------------------0-------|
|----------------0---------------|--------------------------------|
|--------------------------------|--------------------------------|
|3-------------------------------|----------------3---------------|

 |       |       |       |        |       |       |       |        
|--------------------------------|--------------------------------|
|--------------------------------|1---------------1---------------|
|3---------------3---------------|--------------------------------|
|--------------------------------|--------------------------------|

 |       |       |       |        |       |       |       |        
|--------------------------------|----------------0---------------|
|----------------0---------------|--------------------------------|
|1-------------------------------|--------------------------------|
|--------------------------------|3-------------------------------|

 |       |       |       |        |       |       |       |        
|--------------------------------|------------------------0-------|
|--------------------------------|--------------------------------|
|3---------------3---------------|3---------------3---------------|
|--------------------------------|--------------------------------|

 |       |       |       |        |       |       |       |        
|--------------------------------|--------------------------------|
|--------------------------------|--------------------------------|
|3---------------3---------------|4-------------------------------|
|--------------------------------|--------------------------------|

 |       |       |       |        |       |       |       |        
|--------------------------------|--------------------------------|
|--------------------------------|3-------------------------------|
|----------------3---------------|--------------------------------|
|1-------------------------------|----------------1---------------|

 |       |       |       |        |       |       |       |        
|----------------1---------------|----------------1---------------|
|--------------------------------|--------------------------------|
|--------------------------------|--------------------------------|
|4-------------------------------|4-------------------------------|

 |       |       |       |        |       |       |       |        
|----------------0---------------|----------------0---------------|
|--------------------------------|--------------------------------|
|--------------------------------|--------------------------------|
|3-------------------------------|3-------------------------------|

 |       |       |       |        |       |       |       |        
|--------------------------------|0-----------------------0-------|
|----------------0---------------|--------------------------------|
|--------------------------------|--------------------------------|
|3-------------------------------|----------------3---------------|

 |       |       |       |        |       |       |       |        
|--------------------------------|--------------------------------|
|--------------------------------|1---------------1---------------|
|3---------------3---------------|--------------------------------|
|--------------------------------|--------------------------------|

 |       |       |       |        |       |       |       |        
|--------------------------------|----------------0---------------|
|----------------0---------------|--------------------------------|
|1-------------------------------|--------------------------------|
|--------------------------------|3-------------------------------|

 |       |       |       |        |       |       |       |        
|--------------------------------|--------------------------------|
|--------------------------------|3-------------------------------|
|3---------------3---------------|--------------------------------|
|--------------------------------|----------------1---------------|

 |       |       |       |        |       |       |       |        
|--------------------------------|--------------------------------|
|--------------------------------|1-------------------------------|
|1-------------------------------|--------------------------------|
|----------------3---------------|----------------4---------------|

 |       |       |       |        |       |       |       |        
|----------------1---------------|6-------------------------------|
|--------------------------------|--------------------------------|
|4-------------------------------|----------------4---------------|
|--------------------------------|--------------------------------|

 |       |       |       |        |       |       |       |        
|----------------9---------------|----------------9---------------|
|2-------------------------------|2-------------------------------|
|--------------------------------|--------------------------------|
|--------------------------------|--------------------------------|

 |       |       |       |        |       |       |       |        
|----------------8---------------|----------------8---------------|
|1-------------------------------|1-------------------------------|
|--------------------------------|--------------------------------|
|--------------------------------|--------------------------------|

 |       |       |       |        |       |       |       |        
|----------------3---------------|8-----------------------8-------|
|1-------------------------------|----------------1---------------|
|--------------------------------|--------------------------------|
|--------------------------------|--------------------------------|

 |       |       |       |        |       |       |       |        
|1---------------1---------------|4---------------4---------------|
|--------------------------------|--------------------------------|
|--------------------------------|--------------------------------|
|--------------------------------|--------------------------------|

 |       |       |       |        |       |       |       |        
|----------------3---------------|----------------8---------------|
|4-------------------------------|1-------------------------------|
|--------------------------------|--------------------------------|
|--------------------------------|--------------------------------|

 |       |       |       |        |       |       |       |        
|1---------------1---------------|1---------------1-------8-------|
|--------------------------------|--------------------------------|
|--------------------------------|--------------------------------|
|--------------------------------|--------------------------------|

 |       |       |       |        |       |       |       |        
|--------------------------------|5-----------------------5-------|
|--------------------------------|--------------------------------|
|4---------------4---------------|----------------3---------------|
|--------------------------------|--------------------------------|

 |       |       |       |        |       |       |       |        
|--------------------------------|--------------------------------|
|--------------------------------|3-------------------------------|
|----------------3---------------|--------------------------------|
|1-------------------------------|----------------1---------------|

 |       |       |       |        |       |       |       |        
|----------------1---------------|----------------1---------------|
|--------------------------------|--------------------------------|
|--------------------------------|--------------------------------|
|4-------------------------------|4-------------------------------|

 |       |       |       |        |       |       |       |        
|----------------0---------------|----------------0---------------|
|--------------------------------|--------------------------------|
|--------------------------------|--------------------------------|
|3-------------------------------|3-------------------------------|

 |       |       |       |        |       |       |       |        
|--------------------------------|0-----------------------0-------|
|----------------0---------------|--------------------------------|
|--------------------------------|--------------------------------|
|3-------------------------------|----------------3---------------|

 |       |       |       |        |       |       |       |        
|--------------------------------|--------------------------------|
|--------------------------------|1---------------1---------------|
|3---------------3---------------|--------------------------------|
|--------------------------------|--------------------------------|

 |       |       |       |        |       |       |       |        
|--------------------------------|----------------0---------------|
|----------------0---------------|--------------------------------|
|1-------------------------------|--------------------------------|
|--------------------------------|3-------------------------------|

 |       |       |       |        |       |       |       |        
|--------------------------------|--------------------------------|
|--------------------------------|3-------------------------------|
|3---------------3---------------|--------------------------------|
|--------------------------------|--------------------------------|

 |       |       |       |        |       |       |       |        
|--------------------------------|--------------------------------|
|--------------------------------|--------------------------------|
|--------------------------------|--------------------------------|
|1-------------------------------|--------------------------------|

 |       |       |       |        |       |       |       |        
|--------------------------------|--------------------------------|
|2-------------------------------|--------------------------------|
|--------------------------------|----------------1---------------|
|--------------------------------|--------------------------------|

 |       |       |       |        |       |       |       |        
|--------------------------------|--------------------------------|
|--------------------------------|--------------------------------|
|--------------------------------|--------------------------------|
|--------------------------------|--------------------------------|





Comments


Popular Cole Nat King tabs & chords
Besame Bass Tabs
Mona Lisa Bass Tabs
Our Love Is Here To Stay Bass Tabs
Stardust Bass Tabs
When I Fall In Love Bass Tabs


Song lyrics



↑ Back to top | Tablatures and chords are parodies/interpretations of the original songs. You may use it for private study, scholarship, research or language learning purposes only
© 2014 AZChords.com Contact us | Privacy policy | DMCA | Add/correct tabs | Request tabs | Top 50 tabs