>
 >
Stardust

Stardust Bass Tabs

Cole Nat King - Stardust chords, tabs, tablatures, lyrics

Guitar lessons | Add/correct | Request | Top 50 tabs Artists:  A B C D E F G H I J K L M N O P Q R S T U V W X Y Z 0-9

Stardust Bass Tabs – Cole Nat King

CD, Sheet music, Poster

Do you like Stardust? Share with your friends now
Bass Tabs
nat king cole_stardust

TablEdited by Jan Bjorklund   
You are welcome to request for tabs!
Fingering and positions as suggested by TablEdit, please use common sense.


TablEdited by Jan Bjorklund
Tuning : E A D G 	Time Signature: 4/4

 |       |       |       |        |       |       |       |        
|--------------------------------|1-------------------------------|
|----------------1---------------|----------------3---------------|
|1-------------------------------|--------------------------------|
|--------------------------------|--------------------------------|

 |       |       |       |        |       |       |       |        
|--------------------------------|1---------------1---------------|
|----------------1---------------|--------------------------------|
|1-------------------------------|--------------------------------|
|--------------------------------|--------------------------------|

 |       |       |       |        |       |       |       |        
|------------------------1-------|6-------6-------1-------1-------|
|--------1-------3---------------|--------------------------------|
|4-------------------------------|--------------------------------|
|--------------------------------|--------------------------------|

 |       |       |       |        |       |       |       |        
|--------6-------1---------------|----------------6-------6-------|
|------------------------2-------|4-------4-----------------------|
|4-------------------------------|--------------------------------|
|--------------------------------|--------------------------------|

 |       |       |       |        |       |       |       |        
|1-------8-----------------------|------------------------5-------|
|--------------------------------|----------------3---------------|
|----------------1-------1-------|3-------3-----------------------|
|--------------------------------|--------------------------------|

 |       |       |       |        |       |       |       |        
|--------------------------------|--------3-----------------------|
|--------3---------------3-------|----------------3---------------|
|1---------------1---------------|1-----------------------4-------|
|--------------------------------|--------------------------------|

 |       |       |       |        |       |       |       |        
|--------------------------------|--------------------------------|
|1---------------1---------------|1---------------1---------------|
|--------------------------------|--------------------------------|
|--------------------------------|--------------------------------|

 |       |       |       |        |       |       |       |        
|1-------------------------------|--------------------------------|
|--------------------------------|----------------3---------------|
|----------------1---------------|3-------------------------------|
|--------------------------------|--------------------------------|

 |       |       |       |        |       |       |       |        
|--------------------------------|3-------------------------------|
|----------------3---------------|----------------3---------------|
|1-------------------------------|------------------------1-------|
|--------------------------------|--------------------------------|

 |       |       |       |        |       |       |       |        
|--------------------------------|----------------1---------------|
|1---------------1---------------|1-------------------------------|
|--------------------------------|--------------------------------|
|--------------------------------|--------------------------------|

 |       |       |       |        |       |       |       |        
|--------------------------------|------------------------1-------|
|--------------------------------|--------1-------3---------------|
|4-------4---------------3-------|4-------------------------------|
|----------------4---------------|--------------------------------|

 |       |       |       |        |       |       |       |        
|----------------1-------1-------|--------6-------3---------------|
|--------------------------------|4-----------------------4-------|
|4-------4-----------------------|--------------------------------|
|--------------------------------|--------------------------------|

 |       |       |       |        |       |       |       |        
|1-------1-----------------------|--------------------------------|
|------------------------3-------|----------------3-------3-------|
|----------------1---------------|1-------1-----------------------|
|--------------------------------|--------------------------------|

 |       |       |       |        |       |       |       |        
|--------1-----------------------|--------------------------------|
|----------------3---------------|----------------4-------4-------|
|4-----------------------4-------|4-------4-----------------------|
|--------------------------------|--------------------------------|

 |       |       |       |        |       |       |       |        
|1-------1-------8-------8-------|------------------------5-------|
|--------------------------------|----------------3---------------|
|--------------------------------|3-------3-----------------------|
|--------------------------------|--------------------------------|

 |       |       |       |        |       |       |       |        
|--------------------------------|----------------1-------3-------|
|--------3-----------------------|1-------3-----------------------|
|1---------------4-------1-------|--------------------------------|
|--------------------------------|--------------------------------|

 |       |       |       |        |       |       |       |        
|1-------1-------8-------8-------|13------13------8-------8-------|
|--------------------------------|--------------------------------|
|--------------------------------|--------------------------------|
|--------------------------------|--------------------------------|

 |       |       |       |        |       |       |       |        
|----------------1-------1-------|6-------6-------1-------1-------|
|--------------------------------|--------------------------------|
|4-------4-----------------------|--------------------------------|
|--------------------------------|--------------------------------|

 |       |       |       |        |       |       |       |        
|----------------1-------1-------|--------1-------3-------6-------|
|--------------------------------|4-------------------------------|
|4-------4-----------------------|--------------------------------|
|--------------------------------|--------------------------------|

 |       |       |       |        |       |       |       |        
|1-------8-----------------------|--------------------------------|
|------------------------3-------|----------------3-------3-------|
|----------------1---------------|3-------3-----------------------|
|--------------------------------|--------------------------------|

 |       |       |       |        |       |       |       |        
|--------------------------------|--------------------------------|
|------------------------3-------|------------------------3-------|
|1-------1-------1---------------|1-------3-------4---------------|
|--------------------------------|--------------------------------|

 |       |       |       |        |       |       |       |        
|--------------------------------|--------------------------------|
|----------------3---------------|------------------------0-------|
|1-------------------------------|1-------3-------4---------------|
|--------------------------------|--------------------------------|

 |       |       |       |        |       |       |       |        
|--------0---------------5-------|--------------------------------|
|----------------3---------------|--------3---------------3-------|
|3-------------------------------|1---------------1---------------|
|--------------------------------|--------------------------------|

 |       |       |       |        |       |       |       |        
|--------------------------------|--------6-------1---------------|
|------------------------3-------|--------------------------------|
|1-------3-------4---------------|4-----------------------4-------|
|--------------------------------|--------------------------------|

 |       |       |       |        |       |       |       |        
|--------1---------------6-------|1-------8-------5-------1-------|
|----------------4---------------|--------------------------------|
|4-------------------------------|--------------------------------|
|--------------------------------|--------------------------------|

 |       |       |       |        |       |       |       |        
|--------------------------------|--------------------------------|
|----------------3-------3-------|------------------------3-------|
|3-------3-----------------------|1-------3-------4---------------|
|--------------------------------|--------------------------------|

 |       |       |       |        |       |       |       |        
|--------8-------3-------1-------|1-------8-------5-------1-------|
|1-------------------------------|--------------------------------|
|--------------------------------|--------------------------------|
|--------------------------------|--------------------------------|

 |       |       |       |        |       |       |       |        
|1-------3-------5-------8-------|1-------5-------6-------7-------|
|--------------------------------|--------------------------------|
|--------------------------------|--------------------------------|
|--------------------------------|--------------------------------|

 |       |       |       |        |       |       |       |        
|8-------------------------------|--------------------------------|
|--------------------------------|--------------------------------|
|--------------------------------|--------------------------------|
|--------------------------------|--------------------------------|





Comments


Popular Cole Nat King tabs & chords
Besame Bass Tabs
Mona Lisa Bass Tabs
Our Love Is Here To Stay Bass Tabs
Unforgettable Bass Tabs
When I Fall In Love Bass Tabs


Song lyrics



↑ Back to top | Tablatures and chords are parodies/interpretations of the original songs. You may use it for private study, scholarship, research or language learning purposes only
© 2014 AZChords.com Contact us | Privacy policy | DMCA | Add/correct tabs | Request tabs | Top 50 tabs