>
 >
Our Love Is Here To Stay

Our Love Is Here To Stay Bass Tabs

Cole Nat King - Our Love Is Here To Stay chords, tabs, tablatures, lyrics

Guitar lessons | Add/correct | Request | Top 50 tabs Artists:  A B C D E F G H I J K L M N O P Q R S T U V W X Y Z 0-9

Our Love Is Here To Stay Bass Tabs – Cole Nat King

CD, Sheet music, Poster

Do you like Our Love Is Here To Stay? Share with your friends now
Bass Tabs
nat king cole_our love is here to stay

TablEdited by Jan Bjorklund   
You are welcome to request for tabs!
Fingering and positions as suggested by TablEdit, please use common sense.


TablEdited by Jan Bjorklund
Tuning : E A D G 	Time Signature: 4/4

 |               |               |               |                
|----------------------------------------------------------------|
|----------------------------1---0-------------------0-----------|
|--------------------3-------------------------------------------|
|1-----------------------1---------------------------------2-----|

 |               |               |               |                
|----------------------------------------------------------------|
|----------------------------------------------------------------|
|----------------------0---1-2---3---3---------------3-----1-----|
|3---------------------------------------------------------------|

 |               |               |               |                
|----------------------------------------------------------------|
|----------------------------1---0---------------0-----0---------|
|0---------------------------------------------------------------|
|--------------------4-2-1-0-------------------------------2-----|

 |               |               |               |                
|----------------------------------------------------------------|
|----------------------------0-----------------------------------|
|------------------------------3---------------------------------|
|3---------------------------------------------------------------|

 |               |               |               |                
|----------------------------------------------------------------|
|--------------------------------0-------------------------------|
|----------------------------------------------------------------|
|3-----------------------------------------------------3---------|

 |               |               |               |                
|----------------------------------------------------------------|
|----------------------------------------------------------------|
|3---------------------------------------------------3-----------|
|--------------------------------3-------------------------0-----|

 |               |               |               |                
|----------------------------------------------------------------|
|----------------------------------------------------------------|
|------------------------------0-1---------------------------1---|
|1---------------------------3-----------------------------------|

 |               |               |               |                
|----------------------------------------------------------------|
|----------------------------1---0---------------0-----0---------|
|0-------------------------0-------------------------------------|
|----------------------------------------------------------------|

 |               |               |               |                
|----------------------------------------------------------------|
|----------------------------------------------------------------|
|----------------------------------------------------------------|
|3-------------------------------3-------------------3-----------|

 |               |               |               |                
|----------------------------------------------------------------|
|----------------------------------------------------------------|
|3-------------------------------3-------------------3---------0-|
|----------------------------------------------------------4-----|

 |               |               |               |                
|----------------------------------------------------------------|
|------------------------------1-0-------------------0-----0-----|
|--------------------------0-------------------------------------|
|------------------------------------------------------------2---|

 |               |               |               |                
|----------------------------------------------------------------|
|----------------------------------------------------------------|
|--------------------0---1---2---2---3-----------3---3-----------|
|3---------------------------------------------------------------|

 |               |               |               |                
|----------------------------------------------------------------|
|--------------------------1-----0-------------------0-----0-----|
|----------------------------------------------------------------|
|1-------------------0---------------------------------------2---|

 |               |               |               |                
|----------------------------------------------------------------|
|----------------------------------------------------------------|
|--------------------------------3-------------------------------|
|3-------------------3-------------------------------------------|

 |               |               |               |                
|----------------------------------------------------------------|
|----------------------------------------------------------------|
|--------------------------------3-------------------------------|
|1---------------------------------------------------------1-----|

 |               |               |               |                
|------------------------------------------------2---------------|
|----------------2-----------------------------------------------|
|--------------------------------0---------------------0---------|
|0---------------------0---4-------------------------------------|

 |               |               |               |                
|----------------------------------------------------------------|
|0-------------------------------0---------------------0---------|
|----------------------------------------------------------------|
|----------------------------------------------------------2-----|

 |               |               |               |                
|----------------------------------------------------0-----------|
|--------------------0-------------------------------------------|
|------------------------4---3-------------------------------2---|
|3-------------------------------3-----------------------3-------|

 |               |               |               |                
|----------------------------------------------------------------|
|----------------------------------------------------------------|
|3---------------3---3-3---------3---3---3-------3---3---3-----3-|
|----------------------------------------------------------------|

 |               |               |               |                
|----------------------------------------------------------------|
|----------------------------------------------------------------|
|------3-------------3---3-----3---------------------------------|
|----------------------------------------------------------------|

 |               |               |               |                
|----------------------------------------------------------------|
|----------------------------------------------------------------|
|----------------------------------------------------------------|
|3-------------------------------3-------------------------1-0---|

 |               |               |               |                
|----------------------------------------------------------------|
|0---------------------------------------------------------------|
|------3---------3---------------3-------------------------------|
|----------------------------------------------------------2---1-|

 |               |               |               |                
|----------------------------------------------------------------|
|----------------------------------------------------------------|
|------------------------------------1-----------------------1---|
|----------------------1-----------------------------------------|

 |               |               |               |                
|----------------------------------------------------------------|
|--------------------------------0-------------------0---0-------|
|0---------------------------0-----------------------------------|
|------------------------------------------------------------2---|

 |               |               |               |                
|----------------------------------------------------------------|
|--------------------------------0-------------------------------|
|----------------------------------------------------------4-----|
|3---------------------------------------------------3-----------|

 |               |               |               |                
|----------------------------------------------------------------|
|----------------------------------------------------------------|
|3-------------------------------3-------------------3-----------|
|----------------------------------------------------------------|

 |               |               |               |                
|----------------------------------------------------------------|
|--------------------------------0-------------------0-----0-----|
|0---------------------------------------------------------------|
|------------------------------------------------------------2---|

 |               |               |               |                
|----------------------------------------------------------------|
|----------------------------------------------------------------|
|--------------------0---1---2---3---3-----------3---3-----------|
|3---------------------------------------------------------------|

 |               |               |               |                
|----------------------------------------------------------------|
|--------------------1-----------0-------------------0-----0-----|
|----------------------------------------------------------------|
|1---------------0-------------------------------------------2---|

 |               |               |               |                
|----------------------------------------------------------------|
|----------------------------------------------------------------|
|--------------------------------3---------------3-----------3---|
|3---------------------------3-----------------------------------|

 |               |               |               |                
|----------------------------------------------------------------|
|----------------------------------------------------------------|
|--------------------------------2-------------------------------|
|1-----------------------------------------------1---------------|

 |               |               |               |                
|----------------------------------------------------------------|
|----------------------------------------------------------------|
|1-------------------------------2-----------------------1-------|
|----------------------------------------------------------------|

 |               |               |               |                
|----------------------------------------------------------------|
|--------------------------------1-0-------------------0-----0---|
|0---------------------------------------------------------------|
|----------------------4-3-2-1-0---------------------------------|

 |               |               |               |                
|--------------------------0-------------------------------------|
|----------------------------------------------------------------|
|------------------------------2---3-----------------3-----------|
|3---------------------------3-----------------------------0-----|

 |               |               |               |                
|----------------------------------------------------------------|
|----------------------------------------------------------------|
|2---------------1---------------0-------------------------------|
|------------------------------------------------4---------------|

 |               |               |               |                
|----------------------------------------------------------------|
|----------------------------------------------------------------|
|----------------3-------------3-----------------3---------------|
|3---------------------------------------------------------------|

 |               |               |               |                
|----------------------------------------------------------------|
|--------------------------------0-------------------------------|
|----------------------------------------------------------------|
|3-----------------------------------------------------3---------|

 |               |               |               |                
|----------------------------------------------------------------|
|----------------------------------------------------------------|
|----------------------------------------------------------------|
|----------------------------------------------------------------|

 |               |               |               |                
|----------------------------------------------------------------|
|----------------------------------------------------------------|
|----------------------------------------------------------------|
|----------------------------------------------------------------|

 |               |               |               |                
|----------------------------------------------------------------|
|----------------------------------------------------------------|
|----------------------------------------------------------------|
|1---------------------------------------------------------------|





Comments


Popular Cole Nat King tabs & chords
Besame Bass Tabs
Mona Lisa Bass Tabs
Stardust Bass Tabs
Unforgettable Bass Tabs
When I Fall In Love Bass Tabs


Song lyrics



↑ Back to top | Tablatures and chords are parodies/interpretations of the original songs. You may use it for private study, scholarship, research or language learning purposes only
© 2014 AZChords.com Contact us | Privacy policy | DMCA | Add/correct tabs | Request tabs | Top 50 tabs