» » »

Cole Nat King, Besame Bass tabs (ver.1)

Artists:  A B C D E F G H I J K L M N O P Q R S T U V W X Y Z # 

Besame Bass tabs (ver.1)

Cole Nat King Tabs
 Rating:
4/5 (4 votes)
Besame lessons Tabs too difficult? Try these video lessons and learn fast
1
                nat king cole_besame

TablEdited by Jan Bjorklund   
You are welcome to request for tabs!
Fingering and positions as suggested by TablEdit, please use common sense.


TablEdited by Jan Bjorklund
Tuning : E A D G 	Time Signature: 4/4

 |       |       |       |        |       |       |       |        
|----------------------------1---|2-------------------------------|
|------------1---2---------------|------------1---2---------------|
|0-------------------------------|--------------------------------|
|--------------------------------|------------------------0-------|

 |       |       |       |        |       |       |       |        
|--------------------------------|--------------------------------|
|--------------------------------|----------------2---------------|
|0-----------0---0-----------0---|0-----------0---------------0---|
|--------------------------------|--------------------------------|

 |       |       |       |        |       |       |       |        
|------------2---2---------------|--------------------------------|
|0---------------------------1---|0-----------0---0-----------0---|
|--------------------------------|--------------------------------|
|--------------------------------|--------------------------------|

 |       |       |       |        |       |       |       |        
|------------2---2---------------|------------4---4---------------|
|0---------------------------0---|2-------------------------------|
|--------------------------------|--------------------------------|
|--------------------------------|----------------------------4---|

 |       |       |       |        |       |       |       |        
|--------------------------------|--------------------------------|
|------------2---2---------------|----------------2---------------|
|0---------------------------0---|0-----------0---------------0---|
|--------------------------------|--------------------------------|

 |       |       |       |        |       |       |       |        
|--------------------------------|--------------------------------|
|--------------------------------|------------2---2-----------1---|
|0-----------0---0-----------0---|0-------------------------------|
|--------------------------------|--------------------------------|

 |       |       |       |        |       |       |       |        
|----------------2---------------|--------------------------------|
|0-----------0---------------0---|0-----------0---0-----------0---|
|--------------------------------|--------------------------------|
|--------------------------------|--------------------------------|

 |       |       |       |        |       |       |       |        
|--------------------------------|------------4---4---------------|
|--------------------------------|2-------------------------------|
|0-----------0---0-----------0---|----------------------------1---|
|--------------------------------|--------------------------------|

 |       |       |       |        |       |       |       |        
|--------------------------------|--------------------------------|
|----------------2---------------|--------------------------------|
|0-----------0---------------0---|--------------------------------|
|--------------------------------|--------------------------------|

 |       |       |       |        |       |       |       |        
|--------------------------------|--------------------------------|
|------------2---2---------------|------------2---2---------------|
|0---------------------------0---|0---------------------------0---|
|--------------------------------|--------------------------------|

 |       |       |       |        |       |       |       |        
|------------2---2---------------|----------------2---------------|
|0-------------------------------|0-----------0---------------0---|
|----------------------------4---|--------------------------------|
|--------------------------------|--------------------------------|

 |       |       |       |        |       |       |       |        
|----------------2---------------|--------------------------------|
|0-----------0---------------0---|2-----------2---2-----------2---|
|--------------------------------|--------------------------------|
|--------------------------------|--------------------------------|

 |       |       |       |        |       |       |       |        
|--------------------------------|--------------------------------|
|--------------------------------|--------------------------------|
|0-----------0---0-----------0---|0-----------0---0-----------0---|
|--------------------------------|--------------------------------|

 |       |       |       |        |       |       |       |        
|----------------2---------------|----------------2---------------|
|0-----------0---------------0---|0-----------0---------------0---|
|--------------------------------|--------------------------------|
|--------------------------------|--------------------------------|

 |       |       |       |        |       |       |       |        
|--------------------------------|------------4---4---------------|
|------------2---2-----------3---|2-------------------------------|
|0-------------------------------|--------------------------------|
|--------------------------------|----------------------------4---|

 |       |       |       |        |       |       |       |        
|--------------------------------|--------------------------------|
|------------2---2---------------|--------------------------------|
|0-------------------------------|--------------------------------|
|----------------------------4---|--------------------------------|

 |       |       |       |        |       |       |       |        
|------------2---2---------------|------------2---2---------------|
|----------------------------0---|--------------------------------|
|--------------------------------|----------------------------1---|
|--------------------------------|--------------------------------|

 |       |       |       |        |       |       |       |        
|--------------------------------|--------------------------------|
|--------------------------------|------------2---2---------------|
|0-----------0---0-----------0---|0---------------------------0---|
|--------------------------------|--------------------------------|

 |       |       |       |        |       |       |       |        
|----------------2---------------|----------------2---------------|
|0-----------0---------------0---|0-----------0---------------0---|
|--------------------------------|--------------------------------|
|--------------------------------|--------------------------------|

 |       |       |       |        |       |       |       |        
|--------------------------------|--------------------------------|
|----------------2---------------|----------------2-----------0---|
|0-----------0---------------0---|0-----------0-------------------|
|--------------------------------|--------------------------------|

 |       |       |       |        |       |       |       |        
|------------2---2---------------|------------2---2---------------|
|----------------------------0---|0---------------------------0---|
|--------------------------------|--------------------------------|
|--------------------------------|--------------------------------|

 |       |       |       |        |       |       |       |        
|--------------------------------|--------------------------------|
|----------------2---------------|----------------2---------------|
|0-----------0---------------0---|0-----------0---------------0---|
|--------------------------------|--------------------------------|

 |       |       |       |        |       |       |       |        
|----------------------------8---|--------------------4-----------|
|------------4-------------------|------------4-----------4-------|
|2-------------------------------|----------------------------2---|
|--------------------------------|--------------------------------|

 |       |       |       |        |       |       |       |        
|------------4---4---------------|------------4---4---------------|
|2---------------------------2---|2-------------------------------|
|--------------------------------|------------------------2-------|
|--------------------------------|--------------------------------|

 |       |       |       |        |       |       |       |        
|--------------------------------|--------------------------------|
|------------2---2---------------|------------2---2---------------|
|0---------------------------0---|0---------------------------4---|
|--------------------------------|--------------------------------|

 |       |       |       |        |       |       |       |        
|------------2---2---------------|----------------2---------------|
|0---------------------------0---|0-----------0---------------0---|
|--------------------------------|--------------------------------|
|--------------------------------|--------------------------------|

 |       |       |       |        |       |       |       |        
|------------2---2---------------|------------4---4---------------|
|0---------------------------0---|2-------------------------------|
|--------------------------------|----------------------------1---|
|--------------------------------|--------------------------------|

 |       |       |       |        |       |       |       |        
|--------------------------------|--------------------------------|
|----------------2---------------|------------2---2---------------|
|0-----------0---------------0---|0---------------------------0---|
|--------------------------------|--------------------------------|

 |       |       |       |        |       |       |       |        
|--------------------------------|--------------------------------|
|------------2---2---------------|------------2---2---------------|
|0---------------------------1---|0---------------------------4---|
|--------------------------------|--------------------------------|

 |       |       |       |        |       |       |       |        
|--------------------------------|----------------4---------------|
|0-----------0---0-----------0---|2-----------2---------------2---|
|--------------------------------|--------------------------------|
|--------------------------------|--------------------------------|

 |       |       |       |        |       |       |       |        
|--------------------------------|--------------------------------|
|------------2---2---------------|--------------------------------|
|0---------------------------1---|--------------------------------|
|--------------------------------|--------------------------------|

 |       |       |       |        |       |       |       |        
|--------------------------------|--------------------------------|
|------------2---2-----------1---|--------------------------------|
|0-------------------------------|0-------------------------------|
|--------------------------------|--------------------------------|

 
            
Submit corrections

comments powered by Disqus
↑ Back to top | Cole Nat King Bass for Besame. Lyrics for acoustic guitar and electric guitar. 1 Tablatures and chords are parodies/interpretations of the original songs. You may use it for private study, scholarship, research or language learning purposes only