» » »

We Used To Vacation Bass tabs (ver.1)

Artists:  A B C D E F G H I J K L M N O P Q R S T U V W X Y Z # 

We Used To Vacation Bass tabs (ver.1)

Cold War Kids
Rating:
5/5 (5 votes)

Hard to play? Try these video lessons and learn fast.
                -------------------------------------------------------------------------------
-------------------------------------------------------------------------------


Tuning: Standard (EADG)

This is my first tab, but I'm pretty sure that most of it's right. I'm fairly certain he
it with a pick, and with a bit of overdrive. There are a few bits in the verses where
throws in a mute instead of a note, or an extra note, but it sounds just fine without 
and they don't really seem to follow a pattern. I'm not 100% sure about the slide at
end of the chorus, or at the end of the song, but it sounds good, so meh. If you have 
suggestions, etc. I'd love to hear from you. Hope you enjoy playing this song as much as I do!


1st Verse (0:04)
G|-------------5---|-------------5---|-------------5---|-------------r-----|\
D|-7---7-----7---7-|-6---6-----6---6-|-5---5-----5---5-|-4---4-------e-----|\x4
A|-----------------|-----------------|-----------------|-------------s-----|\
E|-----------------|-----------------|-----------------|-------------t-----|\
   1 + 2 + 3 + 4 +   1 + 2 + 3 + 4 +   1 + 2 + 3 + 4 +   1 + 2 + 3 + 4 +

Pre-chorus (0:42)
G|-----------------|-----------------|-----------------|-------------------|\
D|-----------------|-----------------|-----------------|-------------------|\x2
A|-------------3---|-------------3---|-------------3---|-------------------|\
E|-5---5-----5---5-|-4---4-----4---4-|-3---3-----3---3-|-2---2-------------|\
   1 + 2 + 3 + 4 +   1 + 2 + 3 + 4 +   1 + 2 + 3 + 4 +   1 + 2 + 3 + 4 +

1st Chorus (1:04)
G|-----------------|-----------------|-----------------|-------------------|\
D|-----------------|-----------------|-----------------|-------------------|\x3
A|-3---------------|-----------------|-----------------|-------------------|\
E|-----------------|-3---------------|-1---------------|-------------------|\
   1 + 2 + 3 + 4 +   1 + 2 + 3 + 4 +   1 + 2 + 3 + 4 +   1 + 2 + 3 + 4 +

G|-----------------|
D|-----------------|
A|-----------------|
E|/13--------------|
   1 + 2 + 3 + 4 +

2nd Verse (1:27)
G|-------------5---|-------------5---|-------------5---|-------------r-----|\
D|-7---7-----7---7-|-6---6-----6---6-|-5---5-----5---5-|-4---4-------e-----|\x4
A|-----------------|-----------------|-----------------|-------------s-----|\
E|-----------------|-----------------|-----------------|-------------t-----|\
   1 + 2 + 3 + 4 +   1 + 2 + 3 + 4 +   1 + 2 + 3 + 4 +   1 + 2 + 3 + 4 +

Pre-chorus (2:04)
G|-----------------|-----------------|-----------------|-------------------|\
D|-----------------|-----------------|-----------------|-------------------|\x2
A|-------------3---|-------------3---|-------------3---|-------------------|\
E|-5---5-----5---5-|-4---4-----4---4-|-3---3-----3---3-|-2---2-------------|\
   1 + 2 + 3 + 4 +   1 + 2 + 3 + 4 +   1 + 2 + 3 + 4 +   1 + 2 + 3 + 4 +

2nd Chorus (2:26)
G|-----------------|-----------------|-----------------|-------------------|\
D|-----------------|-----------------|-----------------|-------------------|\x7
A|-3---------------|-----------------|-----------------|-------------------|\
E|-----------------|-3---------------|-1---------------|-------------------|\
   1 + 2 + 3 + 4 +   1 + 2 + 3 + 4 +   1 + 2 + 3 + 4 +   1 + 2 + 3 + 4 +

G|-----------------|
D|-----------------|
A|-----------------|
E|/13--------------|
   1 + 2 + 3 + 4 +

Outro (3:16)
G|-----------------|-------------------|\
D|-----------------|-------------------|\x4 I'm not certain, but it sounds like
A|-------------3---|-------------3-----|\   he might play 4E instead of 3A for
E|-5---5-----5---5-|-4---4-----4---4---|\  the last one
   1 + 2 + 3 + 4 +   1 + 2 + 3 + 4 +
                                                               (14's)
G|-----------------|-----------------|-----------------|-------------------|\
D|-----------------|-----------------|-----------------|-------------------|\x2
A|-------------3---|-------------3---|-------------3---|-------------------|\
E|-5---5-----5---5-|-4---4-----4---4-|-3---3-----3---3-|-2---2-/-14141414--|\
   1 + 2 + 3 + 4 +   1 + 2 + 3 + 4 +   1 + 2 + 3 + 4 +   1 + 2 + 3 + 4 +
They pretty much just mess around at the end and it sounds a bit like he puts the bass
a bar or two before the end of the song, so pretty much just go nuts.

| /  slide up
| \  slide down
| h  hammer-on
| p  pull-off
| ~  vibrato
| +  harmonic
| x  Mute note
===============================================================================
            
Hard to play? Try these video lessons and learn fast. | Correct




comments powered by Disqus
↑ Back to top | Tablatures and chords are parodies/interpretations of the original songs. You may use it for private study, scholarship, research or language learning purposes only