» » »

Cold War Kids, Rubidoux Tabs (ver.2)

Artists:  A B C D E F G H I J K L M N O P Q R S T U V W X Y Z # 

Rubidoux Tabs (ver.2)

Cold War Kids Tabs
 Rating:
4/5 (4 votes)
Rubidoux lessons Tabs too difficult? Try these video lessons and learn fast
1
                -------------------------------------------------------------------------------
                             RUBIDOUX - Cold War Kids
-------------------------------------------------------------------------------

Tuning: Standard
Intro/Verse
e|-----------------------------------------------------------------------------------------------|
B|-----------------------------------------------------------------------------------------------|
G|-----------------------------------------------------------------------------------------------|
D|11-11-11-11--9--9--9--9--7--7--7--7--7--7--7--7-11-11-11-11--9--9--9--9--7--7--7--7--7--7--7--7|
A|-0--0--0--0--0--0--0--0--0--0--0--0--0--0--0--0--0--0--0--0--0--0--0--0--0--0--0--0--0--0--0--0|
E|-----------------------------------------------------------------------------------------------|

e|-----------------------------------------------------------------------|
B|-----------------------------------------------------------------------|
G|-----------------------------------------------------------------------|
D|7-7-7-7-7-7-7-7-9-9-9-9-7-7-7-7-7-7-7-7-11-11-11-11-7-7-7-7-7-7-7-7-9--|
A|7-7-7-7-7-7-7-7-9-9-9-9-7-7-7-7-7-7-7-7-11-11-11-11-7-7-7-7-7-7-7-7-9--|
E|5-5-5-5-5-5-5-5-7-7-7-7-5-5-5-5-5-5-5-5--9--9--9--9-5-5-5-5-5-5-5-5-7--|

---------------------------------------|
---------------------------------------|
---------------------------------------|
9-9-9-7-7-7-7-7-7-7-7-7-14-11-9-9-7----|
9-9-9-7-7-7-7-7-7-7-7-7-14-11-9-9-7----|
7-7-7-5-5-5-5-5-5-5-5-5-12--9-7-7-5----|


Chorus
e|---------------------------------|
B|----------------------------6----|
G|(9)--9-9-(7)--7-7-------5-7---7-5|
D|(9)--9-9-(7)--7-7-(7)------------|
A|(7)--7-7-(5)--5-5-(7)------------|
E|(0)--0-0-(0)--0-0-(5)------------|

Then you just repeat the Verse/Intro and that's the whole song.

                SERMONS VS THE GOSPEL - Cold War Kids
Intro/Verse
e|-----------------------------------------------------------------|
B|-----------------------------------------------------------------|
G|2-2-2-2-2-2-2-2-----------------2-2-2-2-2-2-2-2------------------|
D|2-2-2-2-2-2-2-2-4-4-4-4-4-4-4-4-2-2-2-2-2-2-2-2-4-4-4-4-4-4-4-4-4|
A|0-0-0-0-0-0-0-0-4-4-4-4-4-4-4-4-0-0-0-0-0-0-0-0-4-4-4-4-4-4-4-4-4|
E|----------------2-2-2-2-2-2-2-2-----------------2-2-2-2-2-2-2-2-2|

Chorus
e|----------------------------------------------------------------------------|
B|----------------------------------------------------------------------------|
G|(2)---------(2)-----------(2)-----------2-2-----2-2-2-2-2-2-2--2-2-----(2)--|
D|(2)-2-(4)---(2)---2-(4)---(2)---2-(4)---2-2-2-2-2-2-2-2-2-2-2--2-2-2-2-(2)--|
A|(0)-2-(4)---(0)---2-(4)---(0)---2-(4)---0-0-2-2-0-0-0-0-0-0-0--0-0-2-2-(0)--|
E|----0-(2)---------0-(2)---------0-(2)-------0-0--------------------0-0------|

Bridge
e|---------------------------------------------------------------------------|
B|---------------------------------------------------------------------------|
G|2-2-2-4-5-6-6-6-6-6-6-6-6-7-7-7-7-7-7-7-7-6-6-6-6-6-6-6-6-7-7-7-7-7-7-7-7--|
D|2-2-2-4-5-6-6-6-6-6-6-6-6-7-7-7-7-7-7-7-7-6-6-6-6-6-6-6-6-7-7-7-7-7-7-7-7--|
A|0-0-0-2-3-4-4-4-4-4-4-4-4-5-5-5-5-5-5-5-5-4-4-4-4-4-4-4-4-5-5-5-5-5-5-5-5--|
E|---------------------------------------------------------------------------|

Then you return back to the chorus and that's the end of the song. If you have any 
then Email me or if you have a request.


| /  slide up
| \  slide down
| h  hammer-on
| p  pull-off
| ~  vibrato
| +  harmonic
| x  Mute note
===============================================================================
            
Submit corrections

comments powered by Disqus
↑ Back to top | Cold War Kids Tabs for Rubidoux. Lyrics for acoustic guitar and electric guitar. 1 Tablatures and chords are parodies/interpretations of the original songs. You may use it for private study, scholarship, research or language learning purposes only