» » »

Cold War Kids, Rubidoux Tabs (ver.1)

Artists:  A B C D E F G H I J K L M N O P Q R S T U V W X Y Z # 

Rubidoux Tabs (ver.1)

Cold War Kids Tabs
 Rating:
4.2/5 (5 votes)
Rubidoux lessons Tabs too difficult? Try these video lessons and learn fast
                -------------------------------------------------------------------------------
-------------------------------------------------------------------------------

Most of this song you have to strum fast up and down for it to sound
right.To get the right tempo/strumming just listen to the song to get it
 right...

I wasn't too sure about the intro so any comments or suggestions would be 
greatly appreciated.

Intro: 
e|-12-12-12-12-12-12-12-12-12-12-12-12-14-14-x--|
b|--x--x--x--x--x--x--x--x--x--x--x--x--x--x-x--|
g|--x--x--x--x--x--x--x--x--x--x--x--x--x--x-x--|
d|-14-14-14-14-14-14-14-14-14-14-14-14-16-16-x--|
a|----------------------------------------------|
e|----------------------------------------------|

e|-12-12-12-12-12-12-12-12-12-12-12-12-14-14-14-14--|
b|--x--x--x--x--x--x--x--x--x--x--x--x--x--x--x--x--|
g|--x--x--x--x--x--x--x--x--x--x--x--x--x--x--x--x--|
d|-14-14-14-14-14-14-14-14-14-14-14-14-16-16-16-16--|
a|--------------------------------------------------|
e|--------------------------------------------------|

e|-12-12-12-12-12-12-12-12-12-12-12-12-14-14-14-14--|
b|--x--x--x--x--x--x--x--x--x--x--x--x--x--x--x--x--|
g|--x--x--x--x--x--x--x--x--x--x--x--x--x--x--x--x--|
d|-14-14-14-14-14-14-14-14-14-14-14-14-16-16-16-16--|
a|--------------------------------------------------|
e|--------------------------------------------------|

e|-12-12-12-12-12-12-12-12-12-12-12-12--7--7--7--7--|
b|--x--x--x--x--x--x--x--x--x--x--x--x--x--x--x--x--|
g|--x--x--x--x--x--x--x--x--x--x--x--x--x--x--x--x--|
d|-14-14-14-14-14-14-14-14-14-14-14-14--9--9--9--9--|
a|--------------------------------------------------|
e|--------------------------------------------------|
    Repeat Intro twice

Verse:
e|------------------------------------------|
b|------------------------------------------|
g|------------------------------------------|
d|-7-7-7-7-7-7-7-7-7-7-7-7--7-9--9-9-9-9----|
a|-x-x-x-x-x-x-x-x-x-x-x-x--x-x--x-x-x-x----|
e|-5-5-5-5-5-5-5-5-5-5-5-5--5/7--7-7-7-7----|

e|-------------------------------------------|
b|-------------------------------------------|
g|-------------------------------------------|
d|-7-7-7-7-7-7-7-7-7-7-7-7--7-11-11-11-11-11-|
a|-x-x-x-x-x-x-x-x-x-x-x-x--x-x--x--x--x--x--|
e|-5-5-5-5-5-5-5-5-5-5-5-5--5/9--9--9--9--9--|

e|------------------------------------------|
b|------------------------------------------|
g|------------------------------------------|
d|-7-7-7-7-7-7-7-7-7-7-7-7--7-9--9-9-9-9----|
a|-x-x-x-x-x-x-x-x-x-x-x-x--x-x--x-x-x-x----|
e|-5-5-5-5-5-5-5-5-5-5-5-5--5/7--7-7-7-7----|

e|-------------------------------------------|
b|-------------------------------------------|
g|-------------------------------------------|
d|-7-7-7-7-7-7-7-7--7-14--14-14-14--11-11-11-|
a|-x-x-x-x-x-x-x-x--x-x----x--x--x--x--x--x--|
e|-5-5-5-5-5-5-5-5--5/12--12-12-12--9--9--9--|
   Repeat Verse 4


Middle of song/break down:
  play once all the way through then start repeating
e|-9--9-9--7--7-7--4--4-4--7-9/12-9----|
b|-x--x-x--x--x-x--x--x-x--------------|
g|-9--9-9--7--7-7--4--4-4--------------|  (X2)
d|-------------------------------------|
a|-------------------------------------|
e|-------------------------------------|
  |---------X2---------|


e|-9--9-9--7--7-7--4--4-4----|
b|-x--x-x--x--x-x--x--x-x----|
g|-9--9-9--7--7-7--4--4-4----|  
d|---------------------------|
a|---------------------------|
e|---------------------------|

Intro/Bridge:
   listen to the song to get the rhythm of the 
strumming and how many strums for 
     this chord     
    |--|
e|-5/x-----12-12-12-12-12-12-12-12-12-12-12-12-14-14--x--|
b|-5/x------x--x--x--x--x--x--x--x--x--x--x--x--x--x--x--|
g|-6/x------x--x--x--x--x--x--x--x--x--x--x--x--x--x--x--|
d|-7/14----14-14-14-14-14-14-14-14-14-14-14-14-16-16--x--|
a|---x---------------------------------------------------|
e|---x---------------------------------------------------|

e|-12-12-12-12-12-12-12-12-12-12-12-12-14-14-x--|
b|--x--x--x--x--x--x--x--x--x--x--x--x--x--x-x--|
g|--x--x--x--x--x--x--x--x--x--x--x--x--x--x-x--|
d|-14-14-14-14-14-14-14-14-14-14-14-14-16-16-x--|
a|----------------------------------------------|
e|----------------------------------------------|

e|-12-12-12-12-12-12-12-12-12-12-12-12-14-14-14-14--|
b|--x--x--x--x--x--x--x--x--x--x--x--x--x--x--x--x--|
g|--x--x--x--x--x--x--x--x--x--x--x--x--x--x--x--x--|
d|-14-14-14-14-14-14-14-14-14-14-14-14-16-16-16-16--|
a|--------------------------------------------------|
e|--------------------------------------------------|

e|-12-12-12-12-12-12-12-12-12-12-12-12--7--7--7--7--|
b|--x--x--x--x--x--x--x--x--x--x--x--x--x--x--x--x--|
g|--x--x--x--x--x--x--x--x--x--x--x--x--x--x--x--x--|
d|-14-14-14-14-14-14-14-14-14-14-14-14--9--9--9--9--|
a|--------------------------------------------------|
e|--------------------------------------------------|

Outro:
e|-----------------------------------|
b|---------------------------5-5-5-5-|
g|-6-6-6-14-14-14-14---6-6-6-x-x-x-x-|  
d|-7-7-7--x--x--x--x---7-7-7-x-x-x-x-|
a|-x-x-x-12-12-12-12---x-x-x---------|
e|-5-5-5---------------5-5-5---------|
  |-------x7-------|

e|------------------------|
b|------------------------|
g|-6-6-6-14-14-14-14---6--|  
d|-7-7-7--x--x--x--x---7--|
a|-x-x-x-12-12-12-12---x--|
e|-5-5-5---------------5--| let last chord ring out
  |-------x4--------|

Order of Song:
I.       intro
II.      verse
III.     intro
IV.      verse
V.       intro
VI.      break down
VII.     intro/bridge
VIII.    verse (x2)ONLY!
IX.      intro  
X.       outro



Questions and Comments greatly appreciated...
                                               thank you.
            
Submit corrections

comments powered by Disqus
↑ Back to top | Cold War Kids Tabs for Rubidoux. Lyrics for acoustic guitar and electric guitar. Tablatures and chords are parodies/interpretations of the original songs. You may use it for private study, scholarship, research or language learning purposes only