» » »

Pregnant Tabs (ver.1)

Artists:  A B C D E F G H I J K L M N O P Q R S T U V W X Y Z # 

Pregnant Tabs (ver.1)

Cold War Kids
Rating:
4/5 (1 vote)

Tabs too difficult? Try these video lessons and learn fast.
                seeing as no one has put a tab up for this song, i decided to try and figure a few parts 
myself and i think i got pretty close. it would be great if anyone would help me 
it so here is:)


Song is played in standard tuning.


          <<<<<<<<<<<<<<<<<<<<<>>>>>>>>>>>>>>>>>>>>>
                                 "Pregnant"
                     _____________________________________
                                    Album
                              Robbers & Cowards

Intro:                                          [first heard at 0:00]

e|---5-6---5-8---5-6---5-8---5-6---5-8---5-6---5-8---5-6----6-5-3-----------|
B|---5-5---5-5---5-5---5-5---5-5---5-5---5-5---5-5---5-5----5-5-5-----------|
G|---5-5---5-5---5-5---5-5---5-5---5-5---5-5---5-5---5-5----5-5-5-----------|
D|--------------------------------------------------------------------------|
A|--------------------------------------------------------------------------|
E|--------------------------------------------------------------------------|



Verse/Chorus:


play this around 14 - 16 times with a few variations in-between.
                                                                 e|6-5-3--
i think a few times he plays the 5h6 5 8 part and also plays the B|5-5-5 part
                                                                 G|5-5-5--
he switches between those two parts a few times so listen.

     V  V ^ V ^  V ^ V ^  V ^
e|---5--5-5-5-5--5-5-5-5--5-5--5h6-5----------------------------------------|
B|---5--5-5-5-5--5-5-5-5--5-5--------8--------------------------------------|
G|---5--5-5-5-5--5-5-5-5--5-5-----------------------------------------------|
D|---7--7-7-7-7--7-7-7-7--7-7-----------------------------------------------|
A|---8--8-8-8-8--8-8-8-8--8-8-----------------------------------------------|
E|--------------------------------------------------------------------------|

V = downstrum
^ = upstroke
h = hammer on (example: 5 hammer on 6)

Verse/Chorus Part 2:

and then play this about 7 times or so

e|---8----8--8--8-----------------------------------------------------------|
B|---8----8--8--8-----------------------------------------------------------|
G|---9----9--9--9-----------------------------------------------------------|
D|--10---10-10-10-----------------------------------------------------------|
A|--10---10-10-10-----------------------------------------------------------|
E|---8----8--8--8-----------------------------------------------------------|


and then play,


Interlude:


e|---------------------------------------------6-5-3------------------------|
B|---------------------------------------------5-5-5------------------------|
G|---2-2-2-2-2-2-2-2-2-2-2-2-2-2-2-2-2-2-2-2---5-5-5------------------------|
D|---3-3-3-3-3-3-3-3-3-3-3-3-3-3-3-3-3-3-3-3--------------------------------|
A|--------------------------------------------------------------------------|
E|--------------------------------------------------------------------------|


and then back to the verse/chorus.


>>>>>>>>>>>>>>>>>>>>>>>>>>>>>>>SONG STRUCTURE<<<<<<<<<<<<<<<<<<<<<<<<<<<<<<<<


Intro
Verse/Chorus x14-16
Verse/Chorus Part 2 x7 times or so
Interlude
Verse/Chorus x9-10 or so
Verse/Chorus Part 2 x8
Interlude
Verse/Chorus x5-7 times

finally play the G|--2-- part till the rest of the song, don't play the other
                 D|--3--
part of the interlude.

there you have it, i just figured this out tonight in only an hour or two. questions, 
rate feel free.
:)
            
Tabs too difficult? Try these video lessons and learn fast.




comments powered by Disqus
↑ Back to top | Tablatures and chords are parodies/interpretations of the original songs. You may use it for private study, scholarship, research or language learning purposes only