» » »

Cold War Kids, Hang Me Up To Dry Bass tabs (ver.1)

Artists:  A B C D E F G H I J K L M N O P Q R S T U V W X Y Z # 

Hang Me Up To Dry Bass tabs (ver.1)

Cold War Kids Tabs
 Rating:
4/5 (11 votes)
Hang Me Up To Dry lessons Tabs too difficult? Try these video lessons and learn fast
1
                Intro/ Verse "Careless in our summer clothes"
G--------------------------------------------------------------|
D------5-5----5-5----5-5----5-5-----2-2----2-2----2-2-----2-2--|  x4
A--------------------------------------------------------------|
E--3-------3-------3-----3-------0------0------0-------0-------|

Chorus "Now hang me up to dry"
G--------------------------------------------------------------|
D--------------------------------------------------------------|  x1
A--------------------------------------------------------------|
E--3-------3-------3-------3-------0------0------0-------0-----|

G-----------------------------------------------------------------|
D-----5-5-----5-5-----5-5-----5-5-----2-2----2-2----2-2-----2-2---|  x2
A-----------------------------------------------------------------|
E--3-------3-------3-------3-------0------0------0-------0--------|

Verse 2 "All mixed-up in the wash"
G--------------------------------------------------------------|
D-----5-5-----5-------5-------5-------2------2------2-------2--|  x1
A--------------------------------------------------------------|
E--3-------3-------3-------3-------0------0------0-------0-----|

Chorus x 3
            
Submit corrections

comments powered by Disqus
↑ Back to top | Cold War Kids Bass for Hang Me Up To Dry. Lyrics for acoustic guitar and electric guitar. 1 Tablatures and chords are parodies/interpretations of the original songs. You may use it for private study, scholarship, research or language learning purposes only