» » »

Cold War Kids, Finally Begin Tabs (ver.1)

Artists:  A B C D E F G H I J K L M N O P Q R S T U V W X Y Z # 

Finally Begin Tabs (ver.1)

Cold War Kids Tabs
 Rating:
4.3/5 (6 votes)
Finally Begin lessons Tabs too difficult? Try these video lessons and learn fast
                Band: Cold War Kids






Intro:


Rhythm-Guitar:

    C#m      B                 E      A
e|------------------------------------------------------|
B|--9---9----9----9---9---9----9--9---10--12--10--9-----|
G|--9---9----11---11--11--11---9--9---9---9---9---9-----|
D|--11--11---9----9---9---9----9--9---9---9---9---9-----|
A|------------------------------------------------------|
E|------------------------------------------------------|

C#m B E
e|----------------------------------|
B|--9---9----9----9---9---9-----9---|
G|--9---9----11---11--11--11p9--9---|
D|--11--11---9----9---9---9-----9---|
A|----------------------------------|
E|----------------------------------|


2x


Lead-Guitar:


e|----------------------------------------------|----------------------|
B|-------------------------7--9b10b9---7--------|----------------------|
G|----9--9--9--9--9--8--9-----------------9-----|---9--9--9--9--9--8---|
D|-------------------------------------------7--|----------------------|
A|----------------------------------------------|----------------------|
E|----------------------------------------------|----------------------|


e|---------------------------------7-------|----------------------|
B|-------------------------7--9b10----9----|----------------------|
G|----9--9--9--9--9--8--9------------------|---9--9--9--9--9--8---|
D|--------------------------------------7--|----------------------|
A|-----------------------------------------|----------------------|
E|-----------------------------------------|----------------------|





Vers:

    E
e|--4--|
B|--5--|
G|--4--|
D|-----|
A|-----|
E|-----|

Holding out, she knows what I'm about
I start to play the silent card

    E
e|--5--5---4--|
B|--5--5---5--|
G|--4--4---4--|
D|------------|
A|------------|
E|------------|

  You make this easy or you play me like a shark

    E
e|--4--|
B|--5--|
G|--4--|
D|-----|
A|-----|
E|-----|

Arms folded, nose to the floor
If it's got to be a leap of faith

    E
e|--7--7---4--|
B|--5--5---5--|
G|--4--4---4--|
D|------------|
A|------------|
E|------------|

  I wish somebody'd push me
That way I'd know who to blame



Pre-Chorus:


           A        E
When we go out tonight
A                  E             C#m      B
I'll be looking so far past the flashing lights

e|-----------------|
B|--------5--4-----|
G|-----4--------4--|
D|--4--------------|
A|-----------------|
E|-----------------|


Lead-Guitar:

e|---0-0--0--0---0-0--0--0---0-0--0--0---0-0------|
B|---4h5--5--5---4h5--5--5---4h5--5--5---5h9--4---|
G|------------------------------------------------|
D|------------------------------------------------|
A|------------------------------------------------|
E|------------------------------------------------|




Chorus:

    C#m      B                 E      A
e|------------------------------------------------------|
B|--9---9----9----9---9---9----9--9---10--12--10--9-----|
G|--9---9----11---11--11--11---9--9---9---9---9---9-----|      4x
D|--11--11---9----9---9---9----9--9---9---9---9---9-----|
A|------------------------------------------------------|
E|------------------------------------------------------|

       Finally open my arms wide
C#m  B         E     A
       Finally I let you inside
C#m  B         E       A
       Finally made it past the end
C#m  B          E    A
     To finally begin


Lead-Guitar:


e|----------------------------------------------|---------------------------------7-------|
B|-------------------------7--9b10b9---7--------|-------------------------7--9b10----9----|
G|----9--9--9--9--9--8--9-----------------9-----|----9--9--9--9--9--8--9------------------|
D|-------------------------------------------7--|--------------------------------------7--|
A|----------------------------------------------|-----------------------------------------|
E|----------------------------------------------|-----------------------------------------|


e|----------------------------------------------|-------------------------------------|
B|-------------------------7--9b10b9---7--------|----------------------------9b109----|
G|----9--9--9--9--9--8--9-----------------9-----|---9--9--9--9--9--8----------------9-|
D|-------------------------------------------7--|-------------------------9-----------|
A|----------------------------------------------|-------------------------------------|
E|----------------------------------------------|-------------------------------------|


Vers: Nathan is strumming the chords more often now, listen to the song to find out that strumming


    E
e|--4--|
B|--5--|
G|--4--|
D|-----|
A|-----|
E|-----|

Weigh the pros but the cons come first
I've got a black belt in doubt


    E
e|--5--5---4--4--4---7--7---4--4--|
B|--5--5---5--5--5---5--5---5--5--|
G|--4--4---4--4--4---4--4---4--4--|
D|--------------------------------|
A|--------------------------------|
E|--------------------------------|

I get claustrophobic, All these open doors around


    E
e|---4--4--4---7--7---4--4--|
B|---5--5--5---5--5---5--5--|
G|---4--4--4---4--4---4--4--|
D|--------------------------|
A|--------------------------|
E|--------------------------|

Still the pros are the hardest to ignore
I've never felt this light before

    E
e|---4--4--4---7--7---4--4--|
B|---5--5--5---5--5---5--5--|
G|---4--4--4---4--4---4--4--|
D|--------------------------|
A|--------------------------|
E|--------------------------|

I took off my sunglasses
And waited for the words



Pre-Chorus:

           A        E
When we go out tonight
A                  E             C#m      B
I'll be looking so far past the flashing lights


e|-----------------|
B|--------5--4-----|
G|-----4--------4--|
D|--4--------------|
A|-----------------|
E|-----------------|


Lead-Guitar:

e|---0-0--0--0---0-0--0--0---0-0--0--0---0-0------|
B|---4h5--5--5---4h5--5--5---4h5--5--5---5h9--4---|
G|------------------------------------------------|
D|------------------------------------------------|
A|------------------------------------------------|
E|------------------------------------------------|




Chorus:

    C#m      B                 E      A
e|------------------------------------------------------|
B|--9---9----9----9---9---9----9--9---10--12--10--9-----|
G|--9---9----11---11--11--11---9--9---9---9---9---9-----|      4x
D|--11--11---9----9---9---9----9--9---9---9---9---9-----|
A|------------------------------------------------------|
E|------------------------------------------------------|
       Finally open my arms wide
C#m  B         E     A
       Finally I let you inside
C#m  B         E       A
       Finally made it past the end
C#m  B          E    A
     To finally begin


Lead-Guitar:


e|----------------------------------------------|---------------------------------7-------|
B|-------------------------7--9b10b9---7--------|-------------------------7--9b10----9----|
G|----9--9--9--9--9--8--9-----------------9-----|----9--9--9--9--9--8--9------------------|
D|-------------------------------------------7--|--------------------------------------7--|
A|----------------------------------------------|-----------------------------------------|
E|----------------------------------------------|-----------------------------------------|


e|----------------------------------------------|-------------------------------------|
B|-------------------------7--9b10b9---7--------|----------------------------9b109----|
G|----9--9--9--9--9--8--9-----------------9-----|---9--9--9--9--9--8----------------9-|
D|-------------------------------------------7--|-------------------------9-----------|
A|----------------------------------------------|-------------------------------------|
E|----------------------------------------------|-------------------------------------|





Bridge: This part was quite hard to figure out for me and it isnt tabbed out exactely. 
the tones are definitely right, just listen to the song to get the right strumming




Rhythm-Guitar:

e|---------------------------------------------------------------------------|
B|---------------------------------------------------------------------------|
G|---7/9--9--9---7/9--9--9---7/9--9--9---7/9--9--9---8--8--8--8--6--6--4--4--|    2x
D|---x-x--x--x---x-x--x--x---x-x--x--x---x-x--x--x---9--9--9--9--x--x--x--x--|
A|---5/7--7--7---5/7--7--7---5/7--7--7---5/7--7--7---9--9--9--9--4--4--2--2--|
E|---------------------------------------------------7--7--7--7--------------|




Lead-Guitar:

e|---------------------------------------------9--7--11--|
B|---9b10b9--7-----7---9b10b9--7-----7-----7---7--7------|
G|--------------9-----------------9-----9--8---8--8------|    2x
D|-----------------------------------------9---9--9------|
A|-------------------------------------------------------|
E|-------------------------------------------------------|



To finally beginn
Where and when




Pre-Chorus:

           A        E
When we go out tonight
A                  E             C#m      B
I'll be looking so far past the flashing lights


e|-----------------|
B|--------5--4-----|
G|-----4--------4--|
D|--4--------------|
A|-----------------|
E|-----------------|




When we go out tonight
I'll be looking so far past the flashing lights


Lead-Guitar:

e|---0-0--0--0---0-0--0--0---0-0--0--0---0-0------|
B|---4h5--5--5---4h5--5--5---4h5--5--5---5h9--4---|
G|------------------------------------------------|
D|------------------------------------------------|
A|------------------------------------------------|
E|------------------------------------------------|



Chorus:

    C#m      B                 E      A
e|------------------------------------------------------|
B|--9---9----9----9---9---9----9--9---10--12--10--9-----|
G|--9---9----11---11--11--11---9--9---9---9---9---9-----|      4x
D|--11--11---9----9---9---9----9--9---9---9---9---9-----|
A|------------------------------------------------------|
E|------------------------------------------------------|

       Finally open my arms wide
C#m  B         E     A
       Finally I let you inside
C#m  B         E       A
       Finally made it past the end
C#m  B          E    A
     To finally begin


Outro:


    C#m      B                 E      A
e|------------------------------------------------------|
B|--9---9----9----9---9---9----9--9---10--12--10--9-----|
G|--9---9----11---11--11--11---9--9---9---9---9---9-----|      4x
D|--11--11---9----9---9---9----9--9---9---9---9---9-----|
A|------------------------------------------------------|
E|------------------------------------------------------|

The hours we keep, the days we save
They add up to years, now face to face
With you by my side, now I can stand, to finally begin




Rhythm-Guitar:

e|---------------------------------------------------------------------------|
B|---------------------------------------------------------------------------|
G|---7/9--9--9---7/9--9--9---7/9--9--9---7/9--9--9---8--8--8--8--6--6--4--4--|    4x
D|---x-x--x--x---x-x--x--x---x-x--x--x---x-x--x--x---9--9--9--9--x--x--x--x--|
A|---5/7--7--7---5/7--7--7---5/7--7--7---5/7--7--7---9--9--9--9--4--4--2--2--|
E|---------------------------------------------------7--7--7--7--------------|
                                                 *last repetition ends here



Lead-Guitar:

e|---------------------------------------------9--7--11--|
B|---9b10b9--7-----7---9b10b9--7-----7-----7---7--7------|
G|--------------9-----------------9-----9--8---8--8------|    4x
D|-----------------------------------------9---9--9------|
A|-------------------------------------------------------|
E|-------------------------------------------------------|
                                        *last repetition ends here
            
Submit corrections

comments powered by Disqus
↑ Back to top | Cold War Kids Tabs for Finally Begin. Lyrics for acoustic guitar and electric guitar. Tablatures and chords are parodies/interpretations of the original songs. You may use it for private study, scholarship, research or language learning purposes only