» » »

Every Man I Fall For Tabs (ver.1)

Artists:  A B C D E F G H I J K L M N O P Q R S T U V W X Y Z # 

Every Man I Fall For Tabs (ver.1)

Cold War Kids
Rating:
5/5 (1 vote)

Hard to play? Try these video lessons and learn fast.
                =====================
   Cold War Kids
 Loyalty to Loyalty
=====================

Great song from their new album. Heres the main parts, there are lots of
different variations of the riff that are played. Just improvise on this.

Comment and Rate! Enjoy!


Main Riff:
e|-----------------------------------------7\0---------------------------|
B|---------8----7--------------------------8\0--7------------------------|
G|---------9----7----6--------------------------7----6---6------6b7r6----| Repeat
D|-----------------------------------------------------------------------| until
A|--------------------------------5/7------------------------------------| chorus
E|--0--------------5---5--5-5-5/7---0----------------5---5--5-5-------0--|

Chorus:
e|--x----x-x----x----x--|
B|--5----6-7----8----7--|
G|--x----x-7----9----9--| Repeat
D|--5----6-x----x----x--|
A|--x----x-5----x----x--|
E|--0----0-x----9----8--|


=======
Lyrics:
=======

Verse:
======
Every man I fall for
Drinks his coffee black
Love and hate are tattooed on his knuckles, and
My name is on his back

Every man I fall for
Works the graveyard shift
He kiss me softly to wake me up
Then takes my place in bed


Chorus:
=======
And I fall
I live with one concern
It's the love
Diminish and return
It's the love
Diminish and return


Verse:
======
Every man I fall for
Keeps his anger on a string and holds it tight
When other men walk by blinking their eyes at me
He always picks a fight

I go walk alone down Ocean Boulevard
Peek in your windows
Tired housewives naggin at their husbands, but
Is this the life you chose?


Chorus:
=======
And I fall
I live with one concern
It's the love
Diminish and return
And I fall
I live with one concern
It's the love
Diminish and return


Outro:
======
Every man I fall for
Nearly every man
Every man I fall for
Nearly every man
            
Hard to play? Try these video lessons and learn fast. | Correct




comments powered by Disqus
↑ Back to top | Tablatures and chords are parodies/interpretations of the original songs. You may use it for private study, scholarship, research or language learning purposes only