» » »

Dreams Old Men Dream Tabs (ver.1)

Artists:  A B C D E F G H I J K L M N O P Q R S T U V W X Y Z # 

Dreams Old Men Dream Tabs (ver.1)

Cold War Kids
Rating:
5/5 (3 votes)

Tabs too difficult? Try these video lessons and learn fast.
                =====================
  Cold  War  Kids
=====================

Their album is amazing. Hope you like this tab, some bits you can figure out
get to it.



============
Intro/Verse:
============

Gtr 1:
e|------------------------------------------------------------------------|
B|--------5-----------------5-----------------5-----------------0---------|
G|----6------6---6------7------7---7------6------6---6------7------11\0---|
D|--4---4------4----4/5---5------5----5/7---7------7----7/9---9-----------|
A|------------------------------------------------------------------------|
E|------------------------------------------------------------------------|

'Thought I was laying in the gutter in
Milk cartons and bones
But I was standing on a mountain top
Looking over your homes'

'Thought I was laying in my garden with
My hands deep in soil
But I was there on an island
Shooting flares at you both'

Gtr1:
e|----------------------------------------5~----|
B|--------5---------5~----------5---------5~----|
G|----6------6---6--7~------6------6---6--7~----|
D|--4---4------4----5~----4---4------4----5~----|
A|----------------------------------------------|
E|----------------------------------------------|

======
Verse:
======
Gtr1 plays intro/verse riff

Gtr2: (played over Gtr1)
e|------------------------------------------------------------------|
B|------------------------------------------------------------------|
G|------------------------------------------------------------------|
D|--4-5-4-4-4/7--4-4-4454-4-4/7--4-4-4454-4-4/7--4-4-4454-4-4-4-4---|
A|------------------------------------------------------------------|
E|------------------------------------------------------------------|

e|------------------------------------------------------------------|
B|------------------------------------------------------------------|
G|------------------------------------------------------------------|
D|--4-5-4-4-4/7--4-4-4454-4-4/7--4-4-4454-4-4/7--4-4-4454-2-0-------|
A|------------------------------------------------------------4-22--|
E|------------------------------------------------------------------|

e|------------------------------------------------------------------|
B|------------------------------------------------------------------|
G|------------------------------------------------------------------|
D|--4-5-4-4-4/7--4-4-4454-4-4/7--4-4-4454-4-4/7--4-4-4454-2-0-------|
A|------------------------------------------------------------4-22--|
E|------------------------------------------------------------------|

'Thought I was soothing like a violin
Confessing new rain
But I was piping like a trumpet
Frantic but faint'

'Thought I was built like a building's built
On concrete and stone
I realized i'm just a hack actor
Finished playing my role'

=======
Chorus:
=======
Dmaj7               Dmaj7(v2)
    You're reading my thoughts
D         G(v2)    G       
    Dreams old men dreams
Dmaj7                           Dmaj7(v2)
    it's just like when we were kids
D            G(v2)  G
    We'd lay around wondering
Dmaj7         Dmaj7(v2)           D      G(v2)  G
    We try to listen to what they said

==============
Chorus chords:
==============
   Dmaj7  Dmaj7(v2)   D      G(v2)    G
e|--------------------14------12------10--|
B|--10--------12------x-------12------12--|
G|--11--------x-------14------x-------x---|
D|--11--------11------12------12------12--|
A|--x---------x-------12------10------10--|
E|--10--------10--------------------------|

======
Verse:
======
'Thought I was writing for a hundred hours
Looking straight into me
But I was reading on the newspaper obituary'

'Thought I was nervous like mail man
Reading your letters dear
But I was at our anniversary
Toasting thirty years'

=========
Chorus 2:
=========
Dmaj7               Dmaj7(v2)
    You're reading my thoughts
D         G(v2)    G       
    Dreams old men dreams
Dmaj7                           Dmaj7(v2)
    it's just like when we were kids
D            G(v2)  G
    We'd lay around wondering
Dmaj7         Dmaj7(v2)           D      G(v2)  G
    We try to listen to what they say
Dmaj7         Dmaj7(v2)           D      G(v2)  G
    We try to listen to what they say


======
Outro:
======
   
e|---------------------------|
B|---------------------------|
G|---------------------------|
D|--12----------9------------|
A|--9---(x10)---9---(x10)----|
E|--10----------7------------|


Push my piano outside
I don't care, I don't care

Meet the media black sky
I don't care, I don't care

The neighbours will complain
Let them stare, let them stare

Who knows where the time goes
I don't care, I don't care

=============
Outro part 2:
=============
e|-------10-------------10------------10-------------10------|
B|-----------10-------------10------------10-------------10--|
G|-----------------------------------------------------------|
D|-----------------------------------------------------------|
A|-----------------12-------------9-------------10-----------|
E|--10-------------------------------------------------------|

'What would you think of me if I told you
I haven't slept in weeks
I've been up chasing my childhood with a pen
These are dreams old men dream'

======================
End, Comment and Rate!
======================
            
Tabs too difficult? Try these video lessons and learn fast.




comments powered by Disqus
↑ Back to top | Tablatures and chords are parodies/interpretations of the original songs. You may use it for private study, scholarship, research or language learning purposes only