>
 >
The Scienist

The Scienist Guitar Tabs

Coldplay - The Scienist chords, tabs, tablatures, lyrics

Guitar lessons | Add/correct | Request | Top 50 tabs Artists:  A B C D E F G H I J K L M N O P Q R S T U V W X Y Z 0-9

The Scienist Guitar Tabs – Coldplay

CD, Sheet music, Poster

Do you like The Scienist? Share with your friends now
Tabs
coldplay
the scientist.


tuning for guitar 2 is (low to hight) E,A,D,E,A,e witha  capo on the first fret. 
this part doestn come into play untill the ending.

guitar 1 (acoustic) is stantard tuning


after the intro, verse and chorus with the piano an acoustic guitar (giutar 1) enters.


+ =fret top string with thumb

guitar 1: acoustic.

  F                  Bb    Bbsus4  Bb   F               Fsus2

 e-------------------------------------------------------------------------
 B-1-1-1-1-1-1-1-1----------------------1-1-1-1-1-1-1-1-1-1-1-1-1-1-1-1-1--
 G-2-2-2-2-2-2-2-2---7-7-7-5-5-5-5-7----2-2-2-2-2-2-2-2-0-0-0-0-0-0-0-0-0--
 D-3-3-3-3-3-3-3-3---8-8-8-8-8-8-8-8----3-3-3-3-3-3-3-3-3-3-3-3-3-3-3-3-3--
 A-3-3-3-3-3-3-3-3---8-8-8-8-8-8-8-8----3-3-3-3-3-3-3-3-3-3-3-3-3-3-3-3-3-- x1
 E-1-1-1-1-1-1-1-1---6-6-6-6-6-6-6-6----1-1-1-1-1-1-1-1-1-1-1-1-1-1-1-1-1--
   +                 +                  +

verse:
guitar 1:acoustic

 
   Dm                       Bb5                F               Fsus2
 e--------------------------------------------------------------------------------
 B-10-10-10-10-10-10-10-10---------------------1-1-1-1-1-1-1-1-1-1-1-1-1-1-1-1-1--
 G-10-10-10-10-10-10-10-10--7-7-7-7-7-7-7-7----2-2-2-2-2-2-2-2-0-0-0-0-0-0-0-0-0--
 D-12-12-12-12-12-12-12-12--8-8-8-8-8-8-8-8----3-3-3-3-3-3-3-3-3-3-3-3-3-3-3-3-3--
 A-12-12-12-12-12-12-12-12--8-8-8-8-8-8-8-8----3-3-3-3-3-3-3-3-3-3-3-3-3-3-3-3-3-- x5
 E-10-10-10-10-10-10-10-10--6-6-6-6-6-6-6-6----1-1-1-1-1-1-1-1-1-1-1-1-1-1-1-1-1--
                            +                  +
Chorus
guitar 1:acoustic


   Bb5                                  F               Fsus2
 e-------------------------------------------------------------------------
 B--------------------------------------1-1-1-1-1-1-1-1-1-1-1-1-1-1-1-1-1--
 G-3-3-3-3-3-3-3-3---3-3-3-3-3-3-3-3----2-2-2-2-2-2-2-2-0-0-0-0-0-0-0-0-0--
 D-3-3-3-3-3-3-3-3---3-3-3-3-3-3-3-3----3-3-3-3-3-3-3-3-3-3-3-3-3-3-3-3-3--
 A-1-1-1-1-1-1-1-1---1-1-1-1-1-1-1-1----3-3-3-3-3-3-3-3-3-3-3-3-3-3-3-3-3-- x2
 E-1-1-1-1-1-1-1-1---1-1-1-1-1-1-1-1----1-1-1-1-1-1-1-1-1-1-1-1-1-1-1-1-1--
                                        +

   C 
 e-----------------------------------
 B-8--8--8--8--8--8--8--8------------
 G-9--9--9--9--9--9--9--9------------
 D-10-10-10-10-10-10-10-10-----------
 A-10-10-10-10-10-10-10-10-----------
 E-8--8--8--8--8--8--8--8------------


Ending:

guitar 2, electric slighty distorted.

note: remember hte tuning E,A,D,E,A,e

(Relitive to capo)

e------------------------------------------------------------------
A-----0-0-0-----2-2-2-0--00-2--------------------------------------
E---4--4-4-4----0-0-0-0--00-0------6h76----6h76----6h76----6h6-----
D-2-2-----------2-2-2-2--22-2---88-8-88-88-8-88-88-8-88-88-8-88----
A-4-4-----------0-0-0-0--00-0---99-9-99-99-9-99-99-9-99-99-9-99----
E-------------------------------00-0-00-00-0-00-00-0-00-00-0-00----

guitar 1:acoustic

 D minor        Bb              F               Fsus2





Comments


Popular Coldplay tabs & chords
Daylight 2 Chords
Easy To Please 1 Chords
Gravity 1 Chords
High And Low Chords
A Message 1 Tabs
God Put A Smile Upon Your Face 5 Tabs
Green Eyes Tabs
See You Soon 3 Tabs
A Whisper Ukulele
Miracle Ukulele


Song lyrics



↑ Back to top | Tablatures and chords are parodies/interpretations of the original songs. You may use it for private study, scholarship, research or language learning purposes only
© 2014 AZChords.com Contact us | Privacy policy | DMCA | Add/correct tabs | Request tabs | Top 50 tabs