» » »

Sparks Bass tabs (ver.2)

Artists:  A B C D E F G H I J K L M N O P Q R S T U V W X Y Z # 

Sparks Bass tabs (ver.2)

Coldplay
Rating:
0/5 (0 votes)

Tabs too difficult? Try these video lessons and learn fast.
                Intro 

G |------------|------------|------------|------------|
D |------------|------------|------------|------------|
A |------------|------------|------------|------------|
E |------------|------------|------------|------------|

G |------8-6---|------------|------8-6---|------------|
D |----------6-|------------|----------6-|------------|
A |4-----------|8-----6-----|4-----------|8-----6-----|
E |------------|------------|------------|------------|

G |------8-6---|------------|------8-6---|------------||
D |----------6-|------------|----------6-|------------||
A |4-----------|8-----6-----|4-----------|8-----6-----||
E |------------|------------|------------|------------||


Verse 1 

G |------------|------------|------------|------------|
D |------------|------------|------------|------------|
A |4---------6-|1-----------|4---------6-|1-----------|
E |------------|------------|------------|------2-----|

G |------------|------------|------------|------------|
D |------------|------------|------------|------------|
A |6---------6-|6-----8-----|4~----------|--------6-8-|
E |------------|------------|------------|------------|

G |------------|------------|------------|------------|
D |------------|--------6-6-|------------|--------6-6-|
A |4~----------|------------|4~----------|------------|
E |------------|------------|------------|------------|

G |------------|------------|------------|--------6---||
D |------------|------------|------------|----------8-||
A |6~----------|6-----8-----|4~----------|------------||
E |------------|------------|------------|------------||


Chorus

G |------------|------------|------------|------------|
D |------------|------------|------------|------------|
A |1----13----3|4----46----6|------------|------------|
E |------------|------------|2~----------|------------|

G |------------|------------|------------|------------|
D |------------|------------|------------|------------|
A |1----13----3|4----46----6|------------|------------|
E |------------|------------|2~----------|------------|

G |------8-6---|------------|------8-6---|------------|
D |----------6-|------------|----------6-|------------|
A |4-----------|8-----6-----|4-----------|8-----6-----|
E |------------|------------|------------|------------|

G |------8-6---|------------|------8-6---|------------||
D |----------6-|------------|----------6-|------------||
A |4-----------|8-----6-----|4-----------|8-----6-----||
E |------------|------------|------------|------------||


Verse 2 

G |------------|------------|------------|------------|
D |------------|------------|------------|------------|
A |4---------6-|1-----------|4---------6-|1-----------|
E |------------|------------|------------|------2-----|

G |------------|------------|------------|------------|
D |------------|------------|------------|------------|
A |6---------6-|6-----8-----|4~----------|--------6-8-|
E |------------|------------|------------|------------|

G |------------|------------|------------|------------|
D |------------|--------6-6-|------------|--------6-6-|
A |4~----------|------------|4~----------|------------|
E |------------|------------|------------|------------|

G |------------|------------|------------|--------6---||
D |------------|------------|------------|----------8-||
A |6~----------|6-----8-----|4~----------|------------||
E |------------|------------|------------|------------||


Chorus

G |------------|------------|------------|------------|
D |------------|------------|------------|------------|
A |1----13----3|4----46----6|------------|------------|
E |------------|------------|2~----------|------------|

G |------------|------------|------------|------------|
D |------------|------------|------------|------------|
A |1----13----3|4----46----6|------------|------------|
E |------------|------------|2~----------|------------|

G |------8-6---|------------|------8-6---|------------|
D |----------6-|------------|----------6-|------------|
A |4-----------|8-----6-----|4-----------|8-----6-----|
E |------------|------------|------------|------------|

G |------8-6---|------------|------8-6---|------------||
D |----------6-|------------|----------6-|------------||
A |4-----------|8-----6-----|4-----------|8-----6-----||
E |------------|------------|------------|------------||

Outro 


G |------8-6---|------------|------8-6---|---10----10-|
D |----------6-|------------|----------6-|8-----6-----|
A |4----4------|8-----6-----|4----4------|------------|
E |------------|------------|------------|------------|

G |------8-6---|------------|------8-6---|---10----10-|
D |----------6-|------------|----------6-|8-----6-----|
A |4----4------|8-----6-----|4----4------|------------|
E |------------|------------|------------|------------|

G |------------||
D |------------||
A |4~----------||
E |------------||
            
Tabs too difficult? Try these video lessons and learn fast.




comments powered by Disqus
↑ Back to top | Tablatures and chords are parodies/interpretations of the original songs. You may use it for private study, scholarship, research or language learning purposes only