» » »

Coldplay, Sparks Tabs (ver.3)

Artists:  A B C D E F G H I J K L M N O P Q R S T U V W X Y Z # 

Sparks Tabs (ver.3)

Coldplay Tabs
 Rating:
4/5 (4 votes)
Sparks lessons Tabs too difficult? Try these video lessons and learn fast
                Guitar 1 

 |--0---0---0---0---0---0-----0------
 |--0---0---0---0---0---0-----0------
 |--0---0---0---0---0---0-----0-0-0--
 |--2---4---5---7---2---2-----2-0-0--
 |--2---6---7---8---4---3-----2-2-0--
 |-----------------------------------

 |--3----3----3----3--|
 |--3----3----3----3--|
 |--0----0----0----0--|
 |--0----2----0----2--|
 |--2----2----2----2--|
 |--3----0----3----0--|

 VERSE 1: (For the last sequence you use thumb to hold down the bass note)

 Guitar 1

 |--3----3----3----3----|--3------------------|--3-3-3-3--3-3-3-3-3--|
 |--3----3----3----3----|--3------------------|--0-0-0-0--0-0-0-0-0--|
 |--0----0----0----0----|--0------------------|--0-0-0-0--0-0-0-0-0--|
 |--0----2----0----2----|--2------------------|--4-4-4-4--5-5-5-5-5--| x2
 |--2----2----2----2----|--3------------------|--5-5-5-5--5-5-5-5-5--|
 |--3----0----3----0----|---------------------|--3-3-3-3--3-3-3-3-3--|

 Guitar 2

 |----------------------|-----0---3-0---0-----|--3-------------------|
 |----------------------|-0h1---1---------1-0-|----------------------|
 |----------------------|---------------------|--0-------------------|
 |----------------------|---------------------|----------------------| x2
 |----------------------|---------------------|----------------------|
 |----------------------|---------------------|----------------------|

 CHORUS:

 Guitar 1 

 |--0---0---0---0---0---0-----0------| |--0---0---0---0---0---0-----0------|
 |--0---0---0---0---0---0-----0------| |--0---0---0---0---0---0-----0------|
 |--0---0---0---0---0---0-----0-0-0--| |--0---0---0---0---0---0-----0-0-0--|
 |--2---4---5---7---2---2-----2-0-0--| |--2---4---5---7---2---2-----2-0-0--|
 |--2---6---7---8---4---3-----2-2-0--| |--2---6---7---8---4---3-----2-2-0--|
 |-----------------------------------| |-----------------------------------|

 Guitar 2

 |--5---7---8--10---8----------------| |--5---7---8--10--12----------------|
 |-----------------------------------| |-----------------------------------|
 |--2---4---5---7---5----------------| |--2---4---5---7---9----------------|
 |-----------------------------------| |-----------------------------------|
 |-----------------------------------| |-----------------------------------|
 |-----------------------------------| |-----------------------------------|

 VERSE 2:

 Guitar 1

 |--3----3----3----3----|--3------------------|--3-3-3-3--3-3-3-3-3--|
 |--3----3----3----3----|--3------------------|--0-0-0-0--0-0-0-0-0--|
 |--0----0----0----0----|--0------------------|--0-0-0-0--0-0-0-0-0--|
 |--0----2----0----2----|--2------------------|--4-4-4-4--5-5-5-5-5--| x1
 |--2----2----2----2----|--3------------------|--5-5-5-5--5-5-5-5-5--|
 |--3----0----3----0----|---------------------|--3-3-3-3--3-3-3-3-3--|

 Guitar 2

 |----------------------|-----0---3-0---0-----|--9-------------------|
 |----------------------|-0h1---1---------1-0-|--9-------------------|
 |----------------------|---------------------|--6-------------------|
 |----------------------|---------------------|----------------------| x1
 |----------------------|---------------------|----------------------|
 |----------------------|---------------------|----------------------|

 The verse then changes to this second time round

 Guitar 1 - (Again use thumb)

 |--3----3----3----3----|--3------------------|--3-3-3-3--3-3-3-3-3--|
 |--0----0----0----0----|--3------------------|--0-0-0-0--0-0-0-0-0--|
 |--0----0----0----0----|--0------------------|--0-0-0-0--0-0-0-0-0--|
 |--5----4----5----4----|--2------------------|--4-4-4-4--5-5-5-5-5--| x1
 |--5----5----6----5----|--3------------------|--5-5-5-5--5-5-5-5-5--|
 |--3----3----3----3----|---------------------|--3-3-3-3--3-3-3-3-3--|

 Guitar 2

 |--9----8----9----2----|-----0---3-0---0-----|--9-------------------|
 |--9----9---10----3----|-0h1---1---------1-0-|--9-------------------|
 |--6----6----6----0----|---------------------|--6-------------------|
 |----------------------|---------------------|----------------------| x1
 |----------------------|---------------------|----------------------|
 |----------------------|---------------------|----------------------|

 Repeat Chorus 

 OUTRO:

 Guitar 1

 |--3----3----3----3--|
 |--3----3----3----3--|
 |--0----0----0----0--|
 |--0----2----0----2--|
 |--2----2----2----2--|
 |--3----0----3----0--|

that's the whole song at it's all perfect

this tab was submitted ny ABCthrashmetal
            
Submit corrections

comments powered by Disqus
↑ Back to top | Coldplay Tabs for Sparks. Lyrics for acoustic guitar and electric guitar. Tablatures and chords are parodies/interpretations of the original songs. You may use it for private study, scholarship, research or language learning purposes only