» » »

Sparks Tabs (ver.2)

Artists:  A B C D E F G H I J K L M N O P Q R S T U V W X Y Z # 

Sparks Tabs (ver.2)

Coldplay
Rating:
0/5 (0 votes)

Hard to play? Try these video lessons and learn fast.
                Coldplay
Sparks


Yet another great great song off the 'Parachutes' album. 
I saw another version of this song, and it is partly right, I just wanted to add to it.
Coldplay is a great band, here's the tab:


Standard Tuning (EADGBE)if yourplease, you can tune your high E string to a D, but it sounds PRETTY MUCH the same to.

Most important: CAPO ON 6TH FRET!

all chords in relation to the capo:

Em - 022000
Am7 - 002010
G (1) - 320000
Em7 - 002000

Intro:


 |--0---0---0---0---0---0-----0------|
 |--0---0---0---0---0---0-----0------|
 |--0---0---0---0---0---0-----0-0-0--|
 |--2---4---5---7---2---2-----2-0-0--|
 |--2---6---7---8---4---3-----3-2-0--|
 |-----------------------------------|

then play G(1), Em, Em7 x4


Verse:

G(1)             Em     Em7
did I drive you away?
G(1)             Em     Em7
I know what you'll say
Am7                       G(1)
you say oh, sing one you know

G(1)             Em     Em7
I promise you this
G(1)             Em     Em7
I'll always look out for you
Am7                    G(1)
yeah that's what I'll do

Chorus:

 |--0---0---0---0---0---0-----0------|
 |--0---0---0---0---0---0-----0------|
 |--0---0---0---0---0---0-----0-0-0--|
 |--2---4---5---7---2---2-----2-0-0--|
 |--2---6---7---8---4---3-----3-2-0--|  x2
 |-----------------------------------|

you say ahh...
I say ahhh...

Verse:
G(1)          Em       Em7
my heart is yours
G(1)                  Em     Em7
it's you that I hold onto
Am7                 G(1)
yeah that's what I do

G(1)            Em     Em7
I know I was wrong
G(1)             Em     Em7
I won't let you down
Am7                                   G(1)
oh, yeah I will, yeah I will, yes I will

Chorus:

I say ah...
I cry ah...

 |--0---0---0---0---0---0-----0------|
 |--0---0---0---0---0---0-----0------|
 |--0---0---0---0---0---0-----0-0-0--|
 |--2---4---5---7---2---2-----2-0-0--|
 |--2---6---7---8---4---3-----3-2-0--|
 |-----------------------------------|  x2 


Play G(1),Em,Em7 all the way out during

"yeah I saw sparks," and "la la la.."

that's it! thanks
            
Hard to play? Try these video lessons and learn fast. | Correct




comments powered by Disqus
↑ Back to top | Tablatures and chords are parodies/interpretations of the original songs. You may use it for private study, scholarship, research or language learning purposes only