» » »

Coldplay, Paradise Tabs (ver.1)

Artists:  A B C D E F G H I J K L M N O P Q R S T U V W X Y Z # 

Paradise Tabs (ver.1)

Coldplay Tabs
Rating:
0/5 (0 votes)
Paradise lessons Tabs too difficult? Try these video lessons and learn fast
                

Stardard Tuning

------|-x--x--x---x--x--|-----------------------------------------------------|
------|-3--5--6---6--5--|-----------------------------------------------------|
------|-3--5--5---5--5--|-----------------------------------------------------|
------|-5--5--7---7--5--|-----------------------------------------------------|
------|-5--3--8---8--3--|-----------------------------------------------------|
------|-x--x--x---x--x--|-----------------------------------------------------|
       Intro Chords Pt.1

------|-x---x---x---|---------------------------------------------------------|
------|-3---6---5---|---------------------------------------------------------|
------|-3---5---5---|---------------------------------------------------------|
------|-5---7---5---|---------------------------------------------------------|
------|-5---8---3---|---------------------------------------------------------|
------|-x---x---x---|---------------------------------------------------------|
       Intro Chords Pt.2

------|------------------------------|----------------------------------------|
------|------------------------------|----------------------------------------|
------|---17-19--21-19-17------------|----------------------------------------|
------|-19----------------19--19--17-|----------------------------------------|
------|------------------------------|----------------------------------------|
------|------------------------------|----------------------------------------|
       W/ Intro Pt.2

-----|----------------|--|----------------------------------------------------|
-----|----------------|--|----------------------------------------------------|
-----|----------------|--|----------------------------------------------------|
-----|-8---8---7---5--|--|----------------------------------------------------|
-----|-10--8---8---3--|--|----------------------------------------------------|
-----|-x---x---x---x--|--|----------------------------------------------------|

      Intro/Verse/Chorus Pt.2 Chords



-----|---------------|--|-----------------------------------------------------|
-----|---------------|--|-----------------------------------------------------|
-----|---------------|--|-----------------------------------------------------|
-----|-10--10--7--5--|--|-----------------------------------------------------|
-----|-10--8---8--3--|--|-----------------------------------------------------|
-----|-x---x---x--x--|--|-----------------------------------------------------|
 Verse Chords


-----|-------------|--|-------------------------------------------------------|
-----|-------------|--|-------------------------------------------------------|
-----|-------------|--|-------------------------------------------------------|
-----|-8---7---5---|--|-------------------------------------------------------|
-----|-10--8---3---|--|-------------------------------------------------------|
-----|-x---x---x---|--|-------------------------------------------------------|
     "In the night..."
            

comments powered by Disqus
↑ Back to top | Coldplay Tabs for Paradise. Lyrics for acoustic guitar and electric guitar. Tablatures and chords are parodies/interpretations of the original songs. You may use it for private study, scholarship, research or language learning purposes only