>
 >
Moses

Moses Guitar Tabs

Coldplay - Moses chords, tabs, tablatures, lyrics

Guitar lessons | Add/correct | Request | Top 50 tabs Artists:  A B C D E F G H I J K L M N O P Q R S T U V W X Y Z 0-9

Moses Guitar Tabs – Coldplay

CD, Sheet music, Poster

Do you like Moses? Share with your friends now
ChordsChords v2Chords v3TabsTabs v2Ukulele
Coldplay
Coldplay Live

Standard Tuning: EADGbe

Chords Used:

  Cmaj Amin Fmaj Gmaj Bb Cmaj7 G(barr)
e| 0    0    1    3    0   0      3
b| 1    1    1    3    3   0      3
G| 0    2    2    0    3   5      4
D| 2    2    3    0    3   5      5
A| 3    0    3    2    0   3      5
E| 0    X    X    3    X   X      3

Note: Okay, I'll give you guys the bass guitar tab just to let you have
      some understanding of how it is going to be. But listen to the
      song too. The electric guitar 1 could be playing Cmaj7 Gbarr too.

Intro:

                      G     A A#  C
                   G|---------------
Bass Guitar:       D|---------------
                   A|-------0-1---3-
                   E|-3-3-3-----3---

Electric Guitar 1:    Cmaj Amin Fmaj Gmaj

                   e|-------------------12-12-11-11----11----11----11-
                   b|-------------------------------10----10----10----
Electric Guitar 2: G|-------------------------------------------------
                   D|-------------------------------------------------
                   A|-------------------------------------------------
                   E|-------------------------------------------------

                   e|-12-12-11--------|-12-12-11-11----11----11----11-
                   b|----------12-9-7-|-------------10----10----10----
                   G|-----------------|-------------------------------
                   D|-----------------|-------------------------------
                   A|-----------------|-------------------------------
                   E|-----------------|-------------------------------

                   e|-12-12-11-12-14-|
                   b|----------------|
                   G|----------------|
                   D|----------------|
                   A|----------------|
                   E|----------------|

Verse 1:

Cmaj    Gmaj           Amin    Cmaj
Come on now, don't you want to see,

Cmaj Gmaj         Amin         Cmaj
This thing that's happening to me,

Cmaj Gmaj            Amin Cmaj
Like Moses has power over sea,

Cmaj      Gmaj      Amin Fmaj
So you've got power over me,

Instrumental:

                   e|-12-12-11-11----11----11----11-12-12-11--------|
                   b|-------------10----10----10-------------12-9-7-|
Electric Guitar 2: G|-----------------------------------------------|
                   D|-----------------------------------------------|
                   A|-----------------------------------------------|
                   E|-----------------------------------------------|
Electric Guitar 1:    Cmaj                       Amin

                   e|-12-12-11-11----11----11----11-12-12-11--------|
                   b|-------------10----10----10-------------12-9-7-|
Electric Guitar 2: G|-----------------------------------------------|
                   D|-----------------------------------------------|
                   A|-----------------------------------------------|
                   E|-----------------------------------------------|
Electric Guita4r 1:   Fmaj                       Gmaj

Verse 2:

Cmaj    Gmaj          Amin    Cmaj
Come on now don't you want to know,

Cmaj     Gmaj              Amin  Cmaj
You're a refuge, somewhere I can go,

Cmaj   Gmaj          Amin       Cmaj
You're air that, air that I can breathe,

Cmaj      Gmaj   Amin     Fmaj
You're my golden opportunity,

Chorus:

                 Cmaj
And oh, oh yes I would,

          Gmaj
If I only could,

               Cmaj
And you know I would,

         Fmaj Amin Bb
And baby I,

        Fmaj Amin Bb
Oh baby I,

  Cmaj
I wish,

Instrumental:

                   e|-12-12-11-11----11----11----11-12-12-11--------|
                   b|-------------10----10----10-------------12-9-7-|
Electric Guitar 2: G|-----------------------------------------------|
                   D|-----------------------------------------------|
                   A|-----------------------------------------------|
                   E|-----------------------------------------------|
Electric Guitar 1:    Cmaj                       Amin

                   e|-12-12-11-11----11----11----11-12-12-11--------|
                   b|-------------10----10----10-------------12-9-7-|
Electric Guitar 2: G|-----------------------------------------------|
                   D|-----------------------------------------------|
                   A|-----------------------------------------------|
                   E|-----------------------------------------------|
Electric Guita4r 1:   Fmaj                       Gmaj

Verse 3:

Cmaj    Gmaj           Amin    Cmaj
Come on now, don't you want to see,

Cmaj Gmaj                     Amin    Fmaj
Just what a difference you've made in me,

Cmaj    Gmaj                 Amin     Cmaj
I'll be waiting oh no matter what you say,

Cmaj  Gmaj              Amin     Fmaj
Cause I've been waiting for days and days and days,

Chorus:

                 Cmaj
And oh, oh yes I would,

          Gmaj
If I only could,

               Cmaj
And you know I would,

         Fmaj Amin Bb
And baby I,

        Fmaj Amin Bb
Oh baby I,

  Cmaj Gmaj
I wish,

  Cmaj Gmaj
I wish,

Note: After the 6th line of the bridge, Jonny start the tabs, but it's 
      not really the same. It's just a progression of the lead tabs
      (The on which the 2nd guitarist always do).
      Guitar chords given is for the electric guitar 1, tabs for
      electric 2.

Bridge:

                      Cmaj Amin Amin Gmaj Gmaj Cmaj
                      Oh,       oh,       oh,

                      Cmaj Amin Amin Gmaj Gmaj Fmaj
                      Oh,       oh,       oh,

                                              Gmaj                Fmaj
                      If the sky's gonna fall down let it fall on me,

                                            Gmaj                  Fmaj
                      If you're gonna break down you can break on me,

                                              Gmaj                Fmaj
                      If the sky's gonna fall down let it fall on me,

                                         Gmaj                Fmaj
                      If it's gonna rain down it can rain on me,

                   e|----11----11----11----12----12----12----14----14-
                   b|-11----11----11----11----11----11----11----11----
Electric Guitar 2: G|-------------------------------------------------
                   D|-------------------------------------------------
                   A|-------------------------------------------------
                   E|-------------------------------------------------
Electric Guitar 1:                   Gmaj
                      It can rain on me,

Instrumental:

                   e|-12-12-11-11----11----11----11-12-12-11--------|
                   b|-------------10----10----10-------------12-9-7-|
Electric Guitar 2: G|-----------------------------------------------|
                   D|-----------------------------------------------|
                   A|-----------------------------------------------|
                   E|-----------------------------------------------|
Electric Guitar 1:    Cmaj                       Amin

                   e|-12-12-11-11----11----11----11-12-12-11-12-14-|
                   b|-------------10----10----10-------------------|
Electric Guitar 2: G|----------------------------------------------|
                   D|----------------------------------------------|
                   A|----------------------------------------------|
                   E|----------------------------------------------|
Electric Guitar 1:    Fmaj                       Gmaj

Electric Guitar 1: Cmaj Amin Fmaj Gmaj

Itlof





Comments


Popular Coldplay tabs & chords
A Ghost Chords
Atlas 11 Chords
Careful Where You Stand Chords
Lhuna 1 Chords
Lovers In Japan 2 Chords
Only Superstition 1 Chords
Paradise 11 Chords
Fix You 3 Ukulele
Proof 2 Ukulele
See You Soon Ukulele


Song lyrics



↑ Back to top | Tablatures and chords are parodies/interpretations of the original songs. You may use it for private study, scholarship, research or language learning purposes only
© 2014 AZChords.com Contact us | Privacy policy | DMCA | Add/correct tabs | Request tabs | Top 50 tabs