>
 >
Low

Low Guitar Tabs

Coldplay - Low chords, tabs, tablatures, lyrics

Guitar lessons | Add/correct | Request | Top 50 tabs Artists:  A B C D E F G H I J K L M N O P Q R S T U V W X Y Z 0-9

Low Guitar Tabs – Coldplay

CD, Sheet music, Poster

Do you like Low? Share with your friends now
Bass TabsBass Tabs v2ChordsTabsUkulele
Coldplay - "Low"
--Maybe someone can help with the lead during the verses, and the high lead-chords
--after the first chorus?

Em     022000
Dsus2  xx0230
Bm     x24432
C      332010  (which is actually C/G, well I like it)
A      x02220
G      320003


Intro: C Am Em A C Am

Intro lead: (listen for the rhythm)
e|------------------------------------------------------|
B|------------------------------------------------------|
G|--9-9-9-9-9-etc-sl7-7-7-7-7-7-7-7-7-7-etc-sl9-9-9-9-9-|
D|------------------------------------------------------|
A|------------------------------------------------------|
E|------------------------------------------------------|

e|---------------------------------------------|
B|---------------------------------------------|
G|--7sl9-9-9-9-9-9-9-9-9-9-9-sl7-7-7-7-7-7-----|
D|---------------------------------------------|
A|---------------------------------------------|
E|---------------------------------------------|


Em                     Dsus2     Bm
  You see the world in black and white
   C         Am     Em
No colour or light
Em                       Dsus2  Bm   
  You think you'll never get it right
           C         Am     Em
But you're wrong you might


Em                         Dsus2   Bm
  The sky could fall could fall on me
    C       Am     Em
The parting of the seas
Em                       Dsus2   Bm
  But you mean more mean more to me
         C            Am   Em
Than any colour I can see


C                         Am                    
  All you ever wanted was love
                           Em
But you never looked hard enough
                             A
It's never gonna give itself up


C                            Am
  And all you ever wanted to be
                       Em
Living in perfect symmetry
                               A
Nothing is as down on Earth as us
   C
as us


Em                     Dsus2     Bm
  You see the world in black and white
    C       Am    Em
Not painted right
Em                   Dsus2   Bm
  You see no meaning to your life
        C    Am   Em
Yes you try
        C    Am   Em
Yes you try


(repeat lead intro)

C                             Am                    
  And all you ever wanted was love
                           Em
But you never looked hard enough
                             A
It's never gonna give itself up


C                            Am
  And all you ever wanted to be
                       Em
Living in perfect symmetry
                           A
Nothing is as down on this Earth


(lead start here - see below*)

G                               Em
  Don't you want to see it come soon
                           G
Floating in a big white balloon
                 C          A
Or given on your own silver spoon


G                             Em
Don't you want to see it come down
                            G
Careful throwing your arms around
             C          A
Saying not a moment too soon

   
 
    Don't you wanna see it come soon, floating in a big white
e|-19~~~~~~~~-----------------------12~~~~~~~~~~~~------|
B|------------------------------------------------------|
G|------------------------------------------------------|
D|------------------------------------------------------|
A|------------------------------------------------------|
E|------------------------------------------------------|

      ...balloon, Or given on your own silver spoon

e|-19~~~~~~~~~~~~----------------------------17~~~~~~~~-|
B|------------------------------------------------------|
G|------------------------------------------------------|
D|------------------------------------------------------|
A|------------------------------------------------------|
E|------------------------------------------------------|

  Don't you wanna see it come down, careful throwin' your arms
e|-19~~~~~~~~-----------------------12~~~~~~~~~~~~------|
B|------------------------------------------------------|
G|------------------------------------------------------|
D|------------------------------------------------------|
A|------------------------------------------------------|
E|------------------------------------------------------|

      ...around, sayin' not a moment to soon

e|-12~~~~~~~~~~~~----------------------------17~~~~~~~~-|
B|------------------------------------------------------|
G|------------------------------------------------------|
D|------------------------------------------------------|
A|------------------------------------------------------|
E|------------------------------------------------------|




G                 Em
  Cause I feel low
G                 Em
  Cause I feel low
G                  Em
Oh, yeah I feel low
   A
Oh no
G
Oh


e|-----------------------------------|.|
B|-----------------------------------|.|
G|-----------------------------------|.|
D|--9--9--9sL0------9--9--11---------|.|
A|----------------------------10~~~--|.|
E|-----------------------------------|.|

e|--------------------------------------------------------------------------|
B|--------------------------------------------------------------------------|
G|-----------12--11--9--7-----7--9------9------9------9---------------------|
D|--9--9--9----------------9--------12-----12-----12-----12--(& so on...)---|
A|--------------------------------------------------------------------------|
E|--------------------------------------------------------------------------|


(repeat lead above again over last vocal part) 

G                 Em
  Cause I feel low
G                 Em
  Cause I feel low
G                  Em
Oh, yeah I feel low
   A
Oh no
G
Oh





Comments


Popular Coldplay tabs & chords
42 Chords
Christmas Lights 3 Chords
Daylight 2 Chords
Death And All His Friends Chords
Paradise 12 Chords
Swallowed In The Sea 7 Chords
Trouble 1 Chords
See You Soon 9 Tabs
Trouble 3 Tabs
A Message Ukulele


Song lyrics



↑ Back to top | Tablatures and chords are parodies/interpretations of the original songs. You may use it for private study, scholarship, research or language learning purposes only
© 2014 AZChords.com Contact us | Privacy policy | DMCA | Add/correct tabs | Request tabs | Top 50 tabs