>
 >
Clocks 7

Clocks 7 Guitar Tabs

Coldplay - Clocks 7 chords, tabs, tablatures, lyrics

Guitar lessons | Add/correct | Request | Top 50 tabs Artists:  A B C D E F G H I J K L M N O P Q R S T U V W X Y Z 0-9

Clocks 7 Guitar Tabs – Coldplay

CD, Sheet music, Poster

Do you like Clocks 7? Share with your friends now
Bass TabsBass Tabs v2Bass Tabs v3Bass Tabs v4Bass Tabs v5Bass Tabs v6ChordsChords v2Chords v3Chords v4Chords v5Chords v6Chords v7Chords v8Chords v9Drum TabsTabsTabs v2Tabs v3Tabs v4Tabs v5Tabs v6Tabs v7UkuleleUkulele v2
This tab is geat, this is the way i play it. it would really work good with 2 guitars,
but it can also be played on one in case your a solo type guy. the chords are pretty
much perfect but the only thing is that you have to listen to the song for the strumming pattern.


main piano riff played on guitar

e-12----12----12--10----10----10---10----10----10---9----9----9--|
B---13----13--------11----11----11---11----11--------10---10-----|
G-----14----14--------12----12---------12----12--------11---11---|
D----------------------------------------------------------------|
A----------------------------------------------------------------|
E----------------------------------------------------------------| (4x)


e----------------------------------------------------------------|
B----------------------------------------------------------------|
G-----9-9-9-9-9-9-9-9-9-9-9-9-9-9-6-6-6-6-6-6-6-6-6-6-6-6-6-6----|
D-----8-8-8-8-8-8-8-8-8-8-8-8-8-8-7-7-7-7-7-7-7-7-7-7-7-7-7-7----|
A-----8-8-8-8-8-8-8-8-8-8-8-8-8-8-7-7-7-7-7-7-7-7-7-7-7-7-7-7----|
E-----7-7-7-7-7-7-7-7-7-7-7-7-7-7-5-5-5-5-5-5-5-5-5-5-5-5-5-5----| (2x)

play that upper part twice then play this riff, then back to the top..

e-----------------------------------|
B-----------------------------------|
G----4-4-4-4-4-4-4-4-4-4-4-4-4-4----|
D----5-5-5-5-5-5-5-5-5-5-5-5-5-5----|
A----5-5-5-5-5-5-5-5-5-5-5-5-5-5----|
E----3-3-3-3-3-3-3-3-3-3-3-3-3-3----|

easy song.. happy playing





Comments


Popular Coldplay tabs & chords
Speed Of Sound Bass Tabs
Fix You 1 Chords
Lost Chords
Paradise 6 Chords
Twisted Logic 1 Chords
A Rush Of Blood To The Head Tabs
Don Quixote Tabs
Parachutes 5 Tabs
Trouble 2 Tabs
Viva La Vida 1 Tabs


Song lyrics



↑ Back to top | Tablatures and chords are parodies/interpretations of the original songs. You may use it for private study, scholarship, research or language learning purposes only
© 2014 AZChords.com Contact us | Privacy policy | DMCA | Add/correct tabs | Request tabs | Top 50 tabs