» » »

Coldplay, Clocks Bass tabs (ver.1)

Artists:  A B C D E F G H I J K L M N O P Q R S T U V W X Y Z # 

Clocks Bass tabs (ver.1)

Coldplay Tabs
4/5 (4 votes)
Clocks lessons Tabs too difficult? Try these video lessons and learn fast
                Song - Clocks
Band - Colplay
Album - Rush of Bloof to the Head


G: ---------------------------------------------------------------- 
D: -------------------------------------------------6-6-6-6-6-6-6-6
A: -6-6-6-6-6-6-6-6------------------------------------------------
E: -----------------6-6-6-6-6-6-6-6-6-6-6-6-6-6-6-6----------------

Pre Chorus

G: ---------------------------------------------------------------- 
D: ----------------------------------------------------------------
A: -6-6-6-6-6-6-6-6------------------------------------------------
E: -----------------6-6-6-6-6-6-6-6-6-6-6-6-6-6-6-6-4-4-4-4-4-4-4-4


G: -------------------------------5-------------------------------- 
D: -------------5-6-8-8-8-8-8-8-8---8-8-8-6-6-6-5-5-6-6-6-6-6-6-6-5
A: -6-6-6-6-6-6----------------------------------------------------
E: ----------------------------------------------------------------


G: ------------------------------------------------------------------------
D: ------------------------------------------------------------------------
A: -9-9-9-9-9-9-9-9-9-9-9-9-9-9-9-9-----------------11-11-11-11-11-11-11-11
E: ---------------------------------9-9-9-9-9-9-9-9------------------------

Verse      x6
Pre Chorus x2
Chorus     x2
Verse      x4
Pre Chorus x4
Chorus     x4
Bridge     x4
Chorus     x8
Submit corrections

comments powered by Disqus
↑ Back to top | Coldplay Bass for Clocks. Lyrics for acoustic guitar and electric guitar. Tablatures and chords are parodies/interpretations of the original songs. You may use it for private study, scholarship, research or language learning purposes only