>
 >
Charlie Brown

Charlie Brown Bass Tabs

Coldplay - Charlie Brown chords, tabs, tablatures, lyrics

Guitar lessons | Add/correct | Request | Top 50 tabs Artists:  A B C D E F G H I J K L M N O P Q R S T U V W X Y Z 0-9

Charlie Brown Bass Tabs – Coldplay

CD, Sheet music, Poster

Do you like Charlie Brown? Share with your friends now
Bass TabsBass Tabs v2ChordsChords v2Chords v3Chords v4Chords v5TabsTabs v2Tabs v3Tabs v4Tabs v5Tabs v6UkuleleUkulele v2

of this song. 

There were some technical difficulties with the bass during this show, 
and as such the bass cuts out at the beginning. This tab begins at 
0:55, when Chris enters with the lyrics. The first chorus part, which 
is indicated in the song, can be played during the intro, as it is the 
same thing. 

Verse 1 (0:56)
  1   &   2   &    3   &   4   &    1   &   2   &    3   &   4   &    
G|----------------|----------------|----------------|----------------|
D|----------------|------------13--|13--13--13--13--|----------------|
A|13--13--13--13--|13--13--13------|----------------|13--13--13--13--|
E|----------------|----------------|----------------|----------------|

  1   &   2   &    3   &   4   &    1   &   2   &    3   &   4   &    
G|----------------|----------------|----------------|----------------|
D|----------------|----------------|----------------|----------------|
A|13--13--13--13--|13--13--13--13--|13--13--13--13--|10--10--10--10--|
E|----------------|----------------|----------------|----------------|

  1   &   2   &    3   &   4   &    1   &   2   &    3   &   4   &    
G|----------------|----------------|----------------|----------------|
D|----------------|13--13--13--13--|13--13--13--13-/|13--13--13--13--|
A|10--10--10--10--|----------------|----------------|----------------|
E|----------------|----------------|----------------|----------------|

  1   &   2   &    3   &   4   &    1   &   2   &    3   &   4   &    
G|----------------|----------------|----------------|----------------|
D|13--13--13--13--|----------------|----------------|----------------|
A|----------------|15--15--15--15--|15--15--15--15--|10--10--10--10--|
E|----------------|----------------|----------------|----------------|

  1   &   2   &    3   &   4   &    1   &   2   &    3   &   4   &    
G|----------------|----------------|----------------|----------------|
D|------------13--|13--13--13--13--|----------------|----------------|
A|10--10--10------|----------------|13--13--13--13--|13--13--13--13--|
E|----------------|----------------|----------------|----------------|

  1   &   2   &    3   &   4   &    1   &   2   &    3   &   4   &    
G|----------------|----------------|----------------|----------------|
D|----------------|----------------|----------------|----------------|
A|13--13--13--13--|13--13--13--13--|10--10--10--10--|10--10--10--10--|
E|----------------|----------------|----------------|----------------|

  1   &   2   &    3   &   4   &    1   &   2   &    3   &   4   &    
G|----------------|----------------|----------------|----------------|
D|13--13--13--13--|13--13--13--13--|13--13--13--13--|13--13--13--13--|
A|----------------|----------------|----------------|----------------|
E|----------------|----------------|----------------|----------------| 

                                    Chorus 1 (1:20)
  1   &   2   &    3   &   4   &    1   &   2   &    3   &   4   &    
G|----------------|----------------|----------------|----------------|
D|----------------|----------------|----------------|----------------|
A|15--15--15--15--|15--15--15--15--|10--10--10--10--|10--10--10------|
E|----------------|----------------|----------------|------------11--|

  1   &   2   &    3   &   4   &    1   &   2   &    3   &   4   &    
G|----------------|----------------|----------------|----------------|
D|----------------|----------------|----------------|----------------|
A|----------------|13--13--13--13--|13--13--13--13--|13--13--13--13--|
E|11--11--11--11--|----------------|----------------|----------------|

  1   &   2   &    3   &   4   &    1   &   2   &    3   &   4   &    
G|----------------|----------------|----------------|----------------|
D|----------------|----------------|----------------|13--13--13--13--|
A|13--13--13--13--|10--10--10--10--|10--10--10--10--|----------------|
E|----------------|----------------|----------------|----------------|

  1   &   2   &    3   &   4   &    1   &   2   &    3   &   4   &    
G|----------------|----------------|----------------|----------------|
D|13--13--13--13--|----------------|----------------|----------------|
A|----------------|10--10--10--10--|10--10--10--10--|15--15--15--15--|
E|----------------|----------------|----------------|----------------|

                   Verse 2 (1:33)
  1   &   2   &    3   &   4   &    1   &   2   &    3   &   4   &    
G|----------------|----------------|----------------|----------------|
D|----------------|----------------|----------------|----------------|
A|15--15--15--15--|10--10--10--10--|10--10--10------|----------------|
E|----------------|----------------|------------11--|11--11--11--11--|

  1   &   2   &    3   &   4   &    1   &   2   &    3   &   4   &    
G|----------------|----------------|----------------|----------------|
D|----------------|----------------|----------------|----------------|
A|13--13--13--13--|13--13--13--13--|13--13--13--13--|13--13--13--13--|
E|----------------|----------------|----------------|----------------|

  1   &   2   &    3   &   4   &    1   &   2   &    3   &   4   &    
G|----------------|----------------|----------------|----------------|
D|----------------|----------------|13--13--13--13--|13--13--13--13--|
A|10--10--10--10--|10--10--10--10--|----------------|----------------|
E|----------------|----------------|----------------|----------------|

  1   &   2   &    3   &   4   &    1   &   2   &    3   &   4   &    
G|----------------|----------------|----------------|----------------|
D|13--13--13--13--|13--13--13--13--|----------------|----------------|
A|----------------|----------------|15--15--15--15--|15--15--15--15--|
E|----------------|----------------|----------------|----------------|

  1   &   2   &    3   &   4   &    1   &   2   &    3   &   4   &    
G|----------------|----------------|----------------|----------------|
D|----------------|------------13--|13--13--13--13--|----------------|
A|10--10--10--10--|10--10--10------|----------------|13--13--13--13--|
E|----------------|----------------|----------------|----------------|

                                                     Bridge (1:52)
  1   &   2   &    3   &   4   &    1   &   2   &    3   &   4   &    
G|----------------|----------------|----------------|----------------|
D|----------------|----------------|----------------|----------------|
A|13--13--13--13--|13--13--13--13--|13--13--13--13--|^---------------|
E|----------------|----------------|----------------|11~-------------|

  1   &   2   &    3   &   4   &    1   &   2   &    3   &   4   &    
G|----------------|----------------|----------------|----------------|
D|----------------|----------------|----------------|----------------|
A|----------------|----------------|----------------|^---------------|
E|----------------|----------------|----------------|13~-------------|

  1   &   2   &    3   &   4   &    1   &   2   &    3   &   4   &    
G|----------------|----------------|----------------|----------------|
D|----------------|----------------|----------------|^---------------|
A|----------------|----------------|----------------|13~-------------|
E|----------------|----------------|----------------|----------------|

  1   &   2   &    3   &   4   &    1   &   2   &    3   &   4   &    
G|----------------|----------------|----------------|----------------|
D|----------------|----------------|----------------|^---------------|
A|----------------|----------------|---------------/|13~-------------|
E|----------------|----------------|----------------|----------------|

                                                     Chorus 2 (2:11)
  1   &   2   &    3   &   4   &    1   &   2   &    3   &   4   &    
G|----------------|----------------|----------------|----------------|
D|----------------|----------------|----------------|----------------|
A|----------------|----------------|----------------|10--10--10--10--|
E|----------------|----------------|----------------|----------------|

  1   &   2   &    3   &   4   &    1   &   2   &    3   &   4   &    
G|----------------|----------------|----------------|----------------|
D|------------13--|13--13--13--13--|----------------|----------------|
A|10--10--10------|----------------|13--13--13--13--|13--13--13--13--|
E|----------------|----------------|----------------|----------------|

  1   &   2   &    3   &   4   &    1   &   2   &    3   &   4   &    
G|----------------|----------------|----------------|----------------|
D|----------------|----------------|----------------|----------------|
A|13--13--13--13--|13--13--13--13--|10--10--10--10--|10--10--10--10--|
E|----------------|----------------|----------------|----------------|

  1   &   2   &    3   &   4   &    1   &   2   &    3   &   4   &    
G|----------------|----------------|----------------|----------------|
D|13--13--13--13--|13--13--13--13--|----------------|----------------|
A|----------------|----------------|10--10--10--10--|10--10--10--10--|
E|----------------|----------------|----------------|----------------|

  1   &   2   &    3   &   4   &    1   &   2   &    3   &   4   &    
G|----------------|----------------|----------------|----------------|
D|----------------|----------------|----------------|----------------|
A|15--15--15--15--|15--15--15--15--|10--10--10--10--|10--10--10------|
E|----------------|----------------|----------------|------------11--|

  1   &   2   &    3   &   4   &    1   &   2   &    3   &   4   &    
G|----------------|----------------|----------------|----------------|
D|----------------|----------------|----------------|----------------|
A|----------------|13--13--13--13--|13--13--13--13--|13--13--13--13--|
E|11--11--11--11--|----------------|----------------|----------------|

  1   &   2   &    3   &   4   &    1   &   2   &    3   &   4   &    
G|----------------|----------------|----------------|----------------|
D|----------------|----------------|----------------|13--13--13--13--|
A|13--13--13--13--|10--10--10--10--|10--10--10--10--|----------------|
E|----------------|----------------|----------------|----------------|

  1   &   2   &    3   &   4   &    1   &   2   &    3   &   4   &    
G|----------------|----------------|----------------|----------------|
D|13--13--13--13--|----------------|----------------|----------------|
A|----------------|10--10--10--10--|10--10--10--10--|15--15--15--15--|
E|----------------|----------------|----------------|----------------|

                   Bridge 2 (2:33)  All the boys...
  1   &   2   &    3   &   4   &    1   &   2   &    3   &   4   &    
G|----------------|----------------|----------------|----------------|
D|----------------|----------------|----------------|----------------|
A|15--15--15--15--|----------------|----------------|----------------|
E|----------------|13--13--13--13--|13--13--13--13--|13--13--13--13--|

  1   &   2   &    3   &   4   &    1   &   2   &    3   &   4   &    
G|----------------|----------------|----------------|----------------|
D|----------------|----------------|----------------|-------------^--|
A|----------------|----------------|----------------|13--13--13--13--|
E|13--13--13--13--|11--11--11--11--|11--11--11--11--|----------------|

  1   &   2   &    3   &   4   &    1   &   2   &    3   &   4   &    
G|----------------|----------------|----------------|----------------|
D|-^-------^------|----------------|----------------|----------------|
A|13--13--13--13--|----------------|----------------|----------------|
E|----------------|13--13--13--13--|13--13--13--13--|13--13--13--13--|

  1   &   2   &    3   &   4   &    1   &   2   &    3   &   4   &    
G|----------------|----------------|----------------|----------------|
D|----------------|----------------|----------------|-------------^--|
A|----------------|----------------|----------------|13--13--13--13--|
E|13--13--13--13--|11--11--11--11--|11--11--11--11--|----------------|

  1   &   2   &    3   &   4   &    1   &   2   &    3   &   4   &    
G|----------------|----------------|----------------|----------------|
D|-^-------^------|----------------|----------------|----------------|
A|13--13--13--13--|----------------|----------------|----------------|
E|----------------|13--13--13--13--|13--13--13--13--|13--13--13--13--|

  1   &   2   &    3   &   4   &    1   &   2   &    3   &   4   &    
G|----------------|----------------|----------------|----------------|
D|----------------|----------------|----------------|----------------|
A|----------------|----------------|----------------|----------------|
E|13--13--13--13--|11--11--11--11--|11--11--11--11--|11--11--11--11--|

                                                     Pre-Chorus (3:01)
  1   &   2   &    3   &   4   &    1   &   2   &    3   &   4   &    
G|----------------|----------------|----------------|----------------|
D|----------------|----------------|---R--E--S--T---|----------------|
A|----------------|----------------|-------x7-------|10~-------------|
E|11--11--11--11--|11~-------------|----------------|----------------|

  1   &   2   &    3   &   4   &    1   &   2   &    3   &   4   &    
G|----------------|----------------|----------------|----------------|
D|----------------|----------------|----------------|----------------|
A|----------------|----------------|13~-------------|----------------|
E|------------11~-|----------------|----------------|----------------|

  1   &   2   &    3   &   4   &    1   &   2   &    3   &   4   &    
G|----------------|----------------|----------------|----------------|
D|----------------|----------------|----------------|----------------|
A|----------------|----------------|10~-------------|----------------|
E|----------------|----------------|----------------|----------------|

  1   &   2   &    3   &   4   &    1   &   2   &    3   &   4   &    
G|----------------|----------------|----------------|----------------|
D|----------------|----------------|----------------|----------------|
A|11~-------------|----------------|----------------|----------------|
E|----------------|----------------|----------------|----------------|

  1   &   2   &    3   &   4   &    1   &   2   &    3   &   4   &    
G|----------------|----------------|----------------|----------------|
D|----------------|----------------|----------------|----------------|
A|15~-------------|----------------|10~-------------|----------------|
E|----------------|----------------|----------------|------------11~-|

  1   &   2   &    3   &   4   &    1   &   2   &    3   &   4   &    
G|----------------|----------------|----------------|----------------|
D|----------------|----------------|----------------|----------------|
A|----------------|13~-------------|----------------|----------------|
E|----------------|----------------|----------------|----------------|

  1   &   2   &    3   &   4   &    1   &   2   &    3   &   4   &    
G|----------------|----------------|----------------|----------------|
D|----------------|----------------|----------------|----------------|
A|----------------|10~-------------|----------------|----------------|
E|----------------|----------------|----------------|11~-------------|

  1   &   2   &    3   &   4   &    1   &   2   &    3   &   4   &    
G|----------------|----------------|----------------|----------------|
D|----------------|----------------|----------------|----------------|
A|----------------|----------------|----------------|15~-------------|
E|----------------|----------------|----------------|----------------|

                  Outro (3:26)
  1   &   2   &    3   &   4   &    1   &   2   &    3   &   4   &    
G|----------------|----------------|----------------|----------------|
D|----------------|----------------|----------------|----------------|
A|----------------|10--10--10--10--|10--10--10------|----------------|
E|----------------|----------------|------------11--|11--11--11--11--|

  1   &   2   &    3   &   4   &    1   &   2   &    3   &   4   &    
G|----------------|----------------|----------------|----------------|
D|----------------|----------------|----------------|----------------|
A|13--13--13--13--|13--13--13--13--|13--13--13--13--|13--13--13--13--|
E|----------------|----------------|----------------|----------------|

  1   &   2   &    3   &   4   &    1   &   2   &    3   &   4   &    
G|----------------|----------------|----------------|----------------|
D|----------------|----------------|13--13--13--13--|13--13--13--13--|
A|10--10--10--10--|10--10--10--10--|----------------|----------------|
E|----------------|----------------|----------------|----------------|

  1   &   2   &    3   &   4   &    1   &   2   &    3   &   4   &    
G|----------------|----------------|----------------|----------------|
D|----------------|----------------|----------------|----------------|
A|10--10--10--10--|10--10--10--10--|15--15--15--15--|15--15--15--15--|
E|----------------|----------------|----------------|----------------|

  1   &   2   &    3   &   4   &    1   &   2   &    3   &   4   &    
G|----------------|----------------|----------------|----------------|
D|----------------|----------------|----------------|----------------|
A|10--10--10--10--|10--10--10------|----------------|13--13--13--13--|
E|----------------|------------11--|11--11--11--11--|----------------|

  1   &   2   &    3   &   4   &    1   &   2   &    3   &   4   &    
G|----------------|----------------|----------------|----------------|
D|----------------|----------------|----------------|----------------|
A|13--13--13--13--|13--13--13--13--|13--13--13--13--|10--10--10--10--|
E|----------------|----------------|----------------|----------------|

  1   &   2   &    3   &   4   &    1   &   2   &    3   &   4   &    
G|----------------|----------------|----------------|----------------|
D|----------------|13--13--13--13--|13--13--13--13--|----------------|
A|10--10--10--10--|----------------|----------------|10--10--10--10--|
E|----------------|----------------|----------------|----------------|

  1   &   2   &    3   &   4   &    1   &   2   &    3   &   4   &    
G|----------------|----------------|----------------|----------------|
D|----------------|----------------|----------------|----------------|
A|10--10--10--10--|15--15--15--15--|15--15--15--15--|10--10--10--10--|
E|----------------|----------------|----------------|----------------|

  1   &   2   &    3   &   4   &    1   &   2   &    3   &   4   &    
G|----------------|----------------|----------------|----------------|
D|----------------|----------------|----------------|----------------|
A|10--10--10------|----------------|----------------|----------------|
E|------------11--|11--11--11--11--|13--13--13--13--|13--13--13--13--|

  1   &   2   &    3   &   4   &    1   &   2   &    3   &   4   &    
G|----------------|----------------|----------------|----------------|
D|----------------|----------------|----------------|----------------|
A|----------------|----------------|-^--------------|----------------|
E|13--13--13--13--|13--13--13--13--|11~-------------|----------------|

  1   &   2   &    3   &   4   &    1   &   2   &    3   &   4   &    
G|----------------|----------------|----------------|----------------|
D|----------------|----------------|----------------|----------------|
A|----------------|----------------|----------------|----------------|
E|----------------|---(11)(11)(11)~|----------------|----------------|

  1   &   2   &    3   &   4   &    1   &   2   &    3   &   4   &    
G|----------------|----------------|----------------|----------------|
D|----------------|----------------|----------------|----------------|
A|----------------|----------------|13~-------------|----------------|
E|----------------|----------------|----------------|----------------|

And that is it! I apologize for the weirder than anything timing on this 
piece, but that is how they played it. I was considering experimenting with 
a 2/4 time signature, but I honestly had no idea what it was really in. 

Rate it if you like it!





Comments


Popular Coldplay tabs & chords
Trouble 2 Bass Tabs
Hardest Part 2 Chords
Sparks 5 Chords
Ufo 3 Chords
Violet Hill 4 Chords
Violet Hill 6 Chords
In My Place Live Tabs
Up In Flames Tabs
Now My Feet Wont Touch The Ground Ukulele
Sleeping Sun Ukulele


Song lyrics



↑ Back to top | Tablatures and chords are parodies/interpretations of the original songs. You may use it for private study, scholarship, research or language learning purposes only
© 2014 AZChords.com Contact us | Privacy policy | DMCA | Add/correct tabs | Request tabs | Top 50 tabs