» » »

Careful Where You Stand Tabs (ver.2)

Artists:  A B C D E F G H I J K L M N O P Q R S T U V W X Y Z # 

Careful Where You Stand Tabs (ver.2)

Coldplay
Rating:
4/5 (7 votes)
Tabs too difficult? Try these video lessons and learn fast.
                "Careful Where You Stand" from COLDPLAY

17/02/02
Here is may favourite song of coldplay,
I think nobody have translate that song yet...so mail me your impression at 

Not easy to sing and play that 3 fingers arpegiate but a wonderful song to play 
for everyone
who likes acoustic feeling  

Have fun ! ;)

Intro:

e----11-/-x---------------------
b---(0)-/(0)--------------------
g----9--/-11--------------------
d----x--/-x---------------------
a----x--/-x---------------------
e----9--/-11--------------------



Verse 1 and Verse 2:

e----11-/-x--------4-----0-------11----0------0---0-----
b---(0)-/(0)------(0)----0------(0)----0------0---0-----
g----9--/-11-------4-----2-------9-----2------2---1-----
d----x--/-x--------x-----x-------x----(2)-----2---2-----
a----x--/-x--------x-----x-------x-----x------2---2-----
e----9--/-11-------5-----2-------9-----2------0---0-----
  I feel safe...


e----11-/-x--------4-----0-------11-----2--4------------
b---(0)-/(0)------(0)----0------(0)-----0--0------------
g----9--/-11-------4-----2-------9-----(2)-6------------
d----x--/-x--------x-----x-------x------x--x------------
a----x--/-x--------x-----x-------x------x--x------------
e----9--/-11-------5-----2-------9------2--5------------

Chorus:

e--9----5----4---------9----6----4----4----2-/-4--------
b-(0)--(0)---0--------(0)--(0)--(0)--(0)---0-/-0--------
g--7----4----4---------7----4----4----2----2-/-4--------
d--x----x----x---------x----x----x----x----x-/-x--------
a--x----x----x---------x----x----x----x----x-/-x--------
e--7----3----0---------7----4----3----2----0-/-0--------

careful...    ...it's true 
  X 2 times


End of Verse 2:

e--4----5----5----9----6---5----------------------------
b--0----0----0----0----0---0----------------------------
g--4----6----5----7----4---4----------------------------
d--x----x----x----x----x---x----------------------------
a--x----x----x----x----x---x----------------------------
e--0----0----0----7----4---3----------------------------

X 2 and: 
"...So I like a quiet time please...



I feel safe
I feel warm 
When you're here then I do no wrong
I am cured when i'm by your side
I'm alright
I'm alright
I am safe when I am with you
And I feel warm if you want me too
I am cured when I'm by your side
I'm alright

Careful where you stand 
My love
Careful where you lay your hands
It's true
We're always looking out for one another

I feel safe when I am with you
And i feel warm when you want me too
I am cured when you're all around
I'm alright

Careful where you stand 
My love
Careful where you lay your hands
It's true
We're always looking out for one another

So I like a quiet time please
Yeah i'd like a quiet time...

And careful where you stand
And careful where you stand
            
Tabs too difficult? Try these video lessons and learn fast.


comments powered by Disqus
↑ Back to top | Tablatures and chords are parodies/interpretations of the original songs. You may use it for private study, scholarship, research or language learning purposes only