>
 >
Beautiful World

Beautiful World Guitar Tabs

Coldplay - Beautiful World chords, tabs, tablatures, lyrics

Guitar lessons | Add/correct | Request | Top 50 tabs Artists:  A B C D E F G H I J K L M N O P Q R S T U V W X Y Z 0-9

Beautiful World Guitar Tabs – Coldplay

CD, Sheet music, Poster

Do you like Beautiful World? Share with your friends now
Bass TabsChordsChords v2Chords v3TabsTabs v2Tabs v3Ukulele

BEAUTIFUL WORLD
As recorded by Coldplay





Gtr I (E A D G B E) - 'Acoustic'
Gtr II (E A D G B E) - 'Clean'

  Q=125
 4/4
  Gtr I
  Q  E E Q  E E   +Q   E E Q  E E   +Q   E E Q  E E   +Q   E E Q  E E
|-0--x-0-0--x-0-|-(0)--x-0-0--x-0-|-(0)--x-0-0--x-0-|-(0)--x-0-0--x-0--|
|-1--x-0h1--x-1-|-(1)--x-0h1--x-1-|-(1)--x-0h1--x-1-|-(1)--x-0h1--x-1--|
|-2--x-2-2--x-2-|-(2)--x-2-2--x-0-|-(0)--x-2-2--x-2-|-(2)--x-2-2--x-2--|
|-2--x-2-2--x-2-|-(2)--x-2-2--x-2-|-(2)--x-2-2--x-2-|-(2)--x-2-2--x-2--|
|-0-----------0-|-(0)-----------3-|-(3)-----------0-|-(0)-----------0--|
|---------------|-----------------|-----------------|------------------|


         PM
  +Q   E Q    E    E  E   Q  E Q    E    E  E
|-(0)--x-0--!(0)-^(0)-x-|-0--x-0--!(0)-^(0)-x-|
|-(1)--x-1--!(1)-^(1)-x-|-1--x-1--!(1)-^(1)-x-|
|-(2)--x-2--!(2)-^(2)-x-|-0--x-0--!(0)-^(0)-x-|
|-(2)--x-2--!(2)-^(2)-x-|-2--x-2--!(2)-^(2)-x-|
|-(0)--x----------------|-3--x-3--!(3)-^(3)-x-|
|-----------------------|---------------------|


  Q  E Q    E    E  E   Q  E Q    E    E  E
|---------------------|---------------------|
|---------------------|---------------------|
|-2--x-2--!(2)-^(2)-x-|-2--x-2--!(2)-^(2)-x-|
|-2--x-2--!(2)-^(2)-x-|-2--x-2--!(2)-^(2)-x-|
|-3--x-3--!(3)-^(3)-x-|-3--x-3--!(3)-^(3)-x-|
|-1--x-1--!(1)-^(1)-x-|-1--x-1--!(1)-^(1)-x-|


       PM
  Q  E Q    E    E  E   Q  E Q    E    E  E
|-0--x-0--!(0)-^(0)-x-|-0--x-0--!(0)-^(0)-x-|
|-1--x-1--!(1)-^(1)-x-|-1--x-1--!(1)-^(1)-x-|
|-2--x-2--!(2)-^(2)-x-|-0--x-0--!(0)-^(0)-x-|
|-2--x-2--!(2)-^(2)-x-|-2--x-2--!(2)-^(2)-x-|
|-0--x----------------|-3--x-3--!(3)-^(3)-x-|
|---------------------|---------------------|


  Q  E Q    E    E  E   Q  E Q    E    E  E
|---------------------|---------------------|
|---------------------|---------------------|
|-2--x-2--!(2)-^(2)-x-|-2--x-2--!(2)-^(2)-x-|
|-2--x-2--!(2)-^(2)-x-|-2--x-2--!(2)-^(2)-x-|
|-3--x-3--!(3)-^(3)-x-|-3--x-3--!(3)-^(3)-x-|
|-1--x-1--!(1)-^(1)-x-|-1--x-1--!(1)-^(1)-x-|


        PM                      PM
  Q   E Q     E    E  E   Q   E Q     E    E  E
|-1---x-1---!(1)-^(1)-x-|-1---x-1---!(1)-^(1)-x-|
|-3---x-3---!(3)-^(3)-x-|-3---x-3---!(3)-^(3)-x-|
|-2---x-2---!(2)-^(2)-x-|-2---x-2---!(2)-^(2)-x-|
|-0---x-0---!(0)-^(0)-x-|-0---x-0---!(0)-^(0)-x-|
|-----------------------|-----------------------|
|-----------------------|-----------------------|
|
| Gtr II
| E E E E E   E    E  E   E E E E E   E    E  E
|-5-5-5-5-5---5----5--5-|-7-7-7-7-8---8----8--8-|
|-----------------------|-----------------------|
|-----------------------|-----------------------|
|-----------------------|-----------------------|
|-----------------------|-----------------------|
|-----------------------|-----------------------|


   Q       E  Q     E    E  E    Q     E  Q    E    E  E
|-----------------------------|--------------------------|
|-----------------------------|--------------------------|
|--2-------x--2---!(2)-^(2)-x-|--2-----x--2--!(2)-^(2)-x-|
|--2-------x--2---!(2)-^(2)-x-|--2-----x--2--!(2)-^(2)-x-|
|--3-------x--3---!(3)-^(3)-x-|--3-----x--3--!(3)-^(3)-x-|
|--1-------x--1---!(1)-^(1)-x-|--1-----x--1--!(1)-^(1)-x-|
|
|  E   E   E  E E   E    E  E   +E   Q    Q    E    E  E
|-(8)-(8)---------------------|-----15---15----7---15--7-|
|-(5)-(5)-(5)-5-5---5----5--5-|-(5)--8----8--------------|
|-----------------------------|--------------------------|
|-----------------------------|--------------------------|
|-----------------------------|--------------------------|
|-----------------------------|--------------------------|


          PM                      PM
   Q    E Q     E    E  E   Q   E Q     E    E  E
|--1----x-1---!(1)-^(1)-x-|-1---x-1---!(1)-^(1)-x-|
|--3----x-3---!(3)-^(3)-x-|-3---x-3---!(3)-^(3)-x-|
|--2----x-2---!(2)-^(2)-x-|-2---x-2---!(2)-^(2)-x-|
|--0----x-0---!(0)-^(0)-x-|-0---x-0---!(0)-^(0)-x-|
|-------------------------|-----------------------|
|-------------------------|-----------------------|
|
| +E  E E E E   E    E  E   E E E E E   E    E  E
|-(7)-5-5-5-5---5----5--5-|-7-7-7-7-8---8----8--8-|
|-------------------------|-----------------------|
|-------------------------|-----------------------|
|-------------------------|-----------------------|
|-------------------------|-----------------------|
|-------------------------|-----------------------|


   Q    E Q    E   E  E    Q    E Q    E   E  E
|-----------------------|-----------------------|
|-----------------------|-----------------------|
|--2----x-2--!(2)^(2)-x-|--2----x-2--!(2)^(2)-x-|
|--2----x-2--!(2)^(2)-x-|--2----x-2--!(2)^(2)-x-|
|--3----x-3--!(3)^(3)-x-|--3----x-3--!(3)^(3)-x-|
|--1----x-1--!(1)^(1)-x-|--1----x-1--!(1)^(1)-x-|
|
| +E  E E Q    E   E  E   +E  E E Q    E   E  E
|-(8)-----5-----------5-|-(5)-----5-----------5-|
|-----5h6------5h==6----|-----5h6------5h==6----|
|-----------------------|-----------------------|
|-----------------------|-----------------------|
|-----------------------|-----------------------|
|-----------------------|-----------------------|


       PM
  Q  E Q    E    E  E   Q  E Q    E    E  E
|-0--x-0--!(0)-^(0)-x-|-0--x-0--!(0)-^(0)-x-|
|-1--x-1--!(1)-^(1)-x-|-1--x-1--!(1)-^(1)-x-|
|-2--x-2--!(2)-^(2)-x-|-0--x-0--!(0)-^(0)-x-|
|-2--x-2--!(2)-^(2)-x-|-2--x-2--!(2)-^(2)-x-|
|-0--x----------------|-3--x-3--!(3)-^(3)-x-|
|---------------------|---------------------|


  Q  E Q    E    E  E   Q  E Q    E    E  E
|---------------------|---------------------|
|---------------------|---------------------|
|-2--x-2--!(2)-^(2)-x-|-2--x-2--!(2)-^(2)-x-|
|-2--x-2--!(2)-^(2)-x-|-2--x-2--!(2)-^(2)-x-|
|-3--x-3--!(3)-^(3)-x-|-3--x-3--!(3)-^(3)-x-|
|-1--x-1--!(1)-^(1)-x-|-1--x-1--!(1)-^(1)-x-|


       PM
  Q  E Q    E    E  E   Q  E Q    E    E  E
|-0--x-0--!(0)-^(0)-x-|-0--x-0--!(0)-^(0)-x-|
|-1--x-1--!(1)-^(1)-x-|-1--x-1--!(1)-^(1)-x-|
|-2--x-2--!(2)-^(2)-x-|-0--x-0--!(0)-^(0)-x-|
|-2--x-2--!(2)-^(2)-x-|-2--x-2--!(2)-^(2)-x-|
|-0--x----------------|-3--x-3--!(3)-^(3)-x-|
|---------------------|---------------------|


  Q  E Q    E    E  E   Q  E Q    E    E  E
|---------------------|---------------------|
|---------------------|---------------------|
|-2--x-2--!(2)-^(2)-x-|-2--x-2--!(2)-^(2)-x-|
|-2--x-2--!(2)-^(2)-x-|-2--x-2--!(2)-^(2)-x-|
|-3--x-3--!(3)-^(3)-x-|-3--x-3--!(3)-^(3)-x-|
|-1--x-1--!(1)-^(1)-x-|-1--x-1--!(1)-^(1)-x-|


        PM                      PM
  Q   E Q     E    E  E   Q   E Q     E    E  E
|-1---x-1---!(1)-^(1)-x-|-1---x-1---!(1)-^(1)-x-|
|-3---x-3---!(3)-^(3)-x-|-3---x-3---!(3)-^(3)-x-|
|-2---x-2---!(2)-^(2)-x-|-2---x-2---!(2)-^(2)-x-|
|-0---x-0---!(0)-^(0)-x-|-0---x-0---!(0)-^(0)-x-|
|-----------------------|-----------------------|
|-----------------------|-----------------------|
|
| Gtr II
| E E E E E   E    E  E   E E E E E   E    E  E
|-5-5-5-5-5---5----5--5-|-7-7-7-7-8---8----8--8-|
|-----------------------|-----------------------|
|-----------------------|-----------------------|
|-----------------------|-----------------------|
|-----------------------|-----------------------|
|-----------------------|-----------------------|


   Q       E  Q     E    E  E    Q     E  Q    E    E  E
|-----------------------------|--------------------------|
|-----------------------------|--------------------------|
|--2-------x--2---!(2)-^(2)-x-|--2-----x--2--!(2)-^(2)-x-|
|--2-------x--2---!(2)-^(2)-x-|--2-----x--2--!(2)-^(2)-x-|
|--3-------x--3---!(3)-^(3)-x-|--3-----x--3--!(3)-^(3)-x-|
|--1-------x--1---!(1)-^(1)-x-|--1-----x--1--!(1)-^(1)-x-|
|
|  E   E   E  E E   E    E  E   +E   Q    Q    E    E  E
|-(8)-(8)---------------------|-----15---15----7---15--7-|
|-(5)-(5)-(5)-5-5---5----5--5-|-(5)--8----8--------------|
|-----------------------------|--------------------------|
|-----------------------------|--------------------------|
|-----------------------------|--------------------------|
|-----------------------------|--------------------------|


          PM                      PM
   Q    E Q     E    E  E   Q   E Q     E    E  E
|--1----x-1---!(1)-^(1)-x-|-1---x-1---!(1)-^(1)-x-|
|--3----x-3---!(3)-^(3)-x-|-3---x-3---!(3)-^(3)-x-|
|--2----x-2---!(2)-^(2)-x-|-2---x-2---!(2)-^(2)-x-|
|--0----x-0---!(0)-^(0)-x-|-0---x-0---!(0)-^(0)-x-|
|-------------------------|-----------------------|
|-------------------------|-----------------------|
|
| +E  E E E E   E    E  E   E E E E E   E    E  E
|-(7)-5-5-5-5---5----5--5-|-7-7-7-7-8---8----8--8-|
|-------------------------|-----------------------|
|-------------------------|-----------------------|
|-------------------------|-----------------------|
|-------------------------|-----------------------|
|-------------------------|-----------------------|


   Q    E Q    E   E  E    Q    E Q    E   E  E
|-----------------------|-----------------------|
|-----------------------|-----------------------|
|--2----x-2--!(2)^(2)-x-|--2----x-2--!(2)^(2)-x-|
|--2----x-2--!(2)^(2)-x-|--2----x-2--!(2)^(2)-x-|
|--3----x-3--!(3)^(3)-x-|--3----x-3--!(3)^(3)-x-|
|--1----x-1--!(1)^(1)-x-|--1----x-1--!(1)^(1)-x-|
|
| +E  E E Q    E   E  E   +E  E E Q    E   E  E
|-(8)-----5-----------5-|-(5)-----5-------------|
|-----5h6------5h==6----|-----5h6------5h==6--5-|
|-----------------------|-----------------------|
|-----------------------|-----------------------|
|-----------------------|-----------------------|
|-----------------------|-----------------------|


           PM
   Q     E Q      E    E  E    Q    E Q      E    E  E
|--0-----x-0----!(0)-^(0)-x-|--0----x-0----!(0)-^(0)-x-|
|--1-----x-1----!(1)-^(1)-x-|--1----x-1----!(1)-^(1)-x-|
|--2-----x-2----!(2)-^(2)-x-|--0----x-0----!(0)-^(0)-x-|
|--2-----x-2----!(2)-^(2)-x-|--2----x-2----!(2)-^(2)-x-|
|--0-----x------------------|--3----x-3----!(3)-^(3)-x-|
|---------------------------|--------------------------|
|
| +E  E  E E  E   E    E  E    E E  E E  E   E    E  E
|-----5-12-5-12---5---12--5-|-12-5-12-5-12---5---12----|
|-(5)-----------------------|------------------------5-|
|---------------------------|--------------------------|
|---------------------------|--------------------------|
|---------------------------|--------------------------|
|---------------------------|--------------------------|


   Q    E Q    E   E  E    Q    E Q    E   E  E
|-----------------------|-----------------------|
|-----------------------|-----------------------|
|--2----x-2--!(2)^(2)-x-|--2----x-2--!(2)^(2)-x-|
|--2----x-2--!(2)^(2)-x-|--2----x-2--!(2)^(2)-x-|
|--3----x-3--!(3)^(3)-x-|--3----x-3--!(3)^(3)-x-|
|--1----x-1--!(1)^(1)-x-|--1----x-1--!(1)^(1)-x-|
|
| +E  E E Q    E   E  E   +E  E E Q    E   E  E
|---------5-------------|---------5-------------|
|-(5)-5h6------5h==6--5-|-(5)-5h6------5h==6--5-|
|-----------------------|-----------------------|
|-----------------------|-----------------------|
|-----------------------|-----------------------|
|-----------------------|-----------------------|


           PM
   Q     E Q      E    E  E    Q    E Q      E    E  E
|--0-----x-0----!(0)-^(0)-x-|--0----x-0----!(0)-^(0)-x-|
|--1-----x-1----!(1)-^(1)-x-|--1----x-1----!(1)-^(1)-x-|
|--2-----x-2----!(2)-^(2)-x-|--0----x-0----!(0)-^(0)-x-|
|--2-----x-2----!(2)-^(2)-x-|--2----x-2----!(2)-^(2)-x-|
|--0-----x------------------|--3----x-3----!(3)-^(3)-x-|
|---------------------------|--------------------------|
|
| +E  E  E E  E   E    E  E    E E  E E  E   E    E  E
|-----5-12-5-12---5---12--5-|-12-5-12-5-12---5---12--5-|
|-(5)-----------------------|------------------------5-|
|---------------------------|--------------------------|
|---------------------------|--------------------------|
|---------------------------|--------------------------|
|---------------------------|--------------------------|


   Q    E Q    E   E  E    Q    E Q    E   E  E
|-----------------------|-----------------------|
|-----------------------|-----------------------|
|--2----x-2--!(2)^(2)-x-|--2----x-2--!(2)^(2)-x-|
|--2----x-2--!(2)^(2)-x-|--2----x-2--!(2)^(2)-x-|
|--3----x-3--!(3)^(3)-x-|--3----x-3--!(3)^(3)-x-|
|--1----x-1--!(1)^(1)-x-|--1----x-1--!(1)^(1)-x-|
|
| +E  E E Q    E   E  E   +E  E E Q    E   Q
|---------5-------------|---------5-------------|
|-(5)-5h6------5h==6--5-|-(5)-5h6------5h==6----|
|-----------------------|-----------------------|
|-----------------------|-----------------------|
|-----------------------|-----------------------|
|-----------------------|-----------------------|


       PM
  Q  E Q    E    E  E   Q  E Q    E    E  E
|-0--x-0--!(0)-^(0)-x-|-0--x-0--!(0)-^(0)-x-|
|-1--x-1--!(1)-^(1)-x-|-1--x-1--!(1)-^(1)-x-|
|-2--x-2--!(2)-^(2)-x-|-0--x-0--!(0)-^(0)-x-|
|-2--x-2--!(2)-^(2)-x-|-2--x-2--!(2)-^(2)-x-|
|-0--x----------------|-3--x-3--!(3)-^(3)-x-|
|---------------------|---------------------|


  Q  E Q    E    E  E   Q  E Q    E    E  E
|---------------------|---------------------|
|---------------------|---------------------|
|-2--x-2--!(2)-^(2)-x-|-2--x-2--!(2)-^(2)-x-|
|-2--x-2--!(2)-^(2)-x-|-2--x-2--!(2)-^(2)-x-|
|-3--x-3--!(3)-^(3)-x-|-3--x-3--!(3)-^(3)-x-|
|-1--x-1--!(1)-^(1)-x-|-1--x-1--!(1)-^(1)-x-|


       PM
  Q  E Q    E    E  E   Q  E Q    E    E  E
|-0--x-0--!(0)-^(0)-x-|-0--x-0--!(0)-^(0)-x-|
|-1--x-1--!(1)-^(1)-x-|-1--x-1--!(1)-^(1)-x-|
|-2--x-2--!(2)-^(2)-x-|-0--x-0--!(0)-^(0)-x-|
|-2--x-2--!(2)-^(2)-x-|-2--x-2--!(2)-^(2)-x-|
|-0--x----------------|-3--x-3--!(3)-^(3)-x-|
|---------------------|---------------------|


  Q  E Q    E    E  E   Q  E H    +E
|---------------------|---------------*|
|---------------------|---------------*|
|-2--x-2--!(2)-^(2)-x-|-2--x-2----(2)-*|
|-2--x-2--!(2)-^(2)-x-|-2--x-2----(2)-*|
|-3--x-3--!(3)-^(3)-x-|-3--x-3----(3)-*|
|-1--x-1--!(1)-^(1)-x-|-1--x-1----(1)-*|



Duration Legend
---------------
W - whole; H - half; Q - quarter; E - 8th; S - 16th; T - 32nd; X - 64th; a - acciaccatura
+ - note tied to previous; . - note dotted; .. - note double dotted
Uncapitalized letters represent notes that are staccato (1/2 duration)
Irregular groupings are notated above the duration line
Duration letters will always appear directly above the note/fret number it represents the
duration for.  Duration letters with no fret number below them represent rests.  Multi-
bar rests are notated in the form Wxn, where n is the number of bars to rest for.  Low
melody durations appear below the staff

Tablature Legend
----------------
 h   - hammer-on
 p   - pull-off
 b   - bend
 pb  - pre-bend
 r   - bend release (if no number after the r, then release immediately)
 /\  - slide into or out of (from/to "nowhere")
 s   - legato slide
 S   - shift slide
 - natural harmonic
[n]  - artificial harmonic
n(n) - tapped harmonic
 ~   - vibrato
 tr  - trill
 T   - tap
 TP  - trem. picking
 PM  - palm muting
\n/  - tremolo bar dip; n = amount to dip
 \n  - tremolo bar down
 n/  - tremolo bar up
/n\  - tremolo bar inverted dip
 =   - hold bend; also acts as connecting device for hammers/pulls
 <> - volume swell (louder/softer)
 x   - on rhythm slash represents muted slash
 o   - on rhythm slash represents single note slash

Misc Legend
-----------
 |  - bar
||  - double bar
||o - repeat start
o|| - repeat end
*|  - double bar (ending)
 :  - bar (freetime)
 $  - Segno
 &  - Coda
Tempo markers -  = BPM(8/16=s8/s16), where s8 = swing 8ths, s16 = swing 16ths





Comments


Popular Coldplay tabs & chords
42 Bass Tabs
A Message Bass Tabs
Clocks 5 Bass Tabs
Hardest Part 2 Bass Tabs
Sleeping Sun Bass Tabs
Charlie Brown 2 Chords
Gravity 1 Chords
Lost 3 Chords
Life In Technicolor Intro Tabs
Have Yourself A Merry Little Christmas Ukulele


Song lyrics



↑ Back to top | Tablatures and chords are parodies/interpretations of the original songs. You may use it for private study, scholarship, research or language learning purposes only
© 2014 AZChords.com Contact us | Privacy policy | DMCA | Add/correct tabs | Request tabs | Top 50 tabs