» » »

Coldplay, A Rush Of Blood To The Head Tabs (ver.5)

Artists:  A B C D E F G H I J K L M N O P Q R S T U V W X Y Z # 

A Rush Of Blood To The Head Tabs (ver.5)

Coldplay Tabs
Rating:
0/5 (0 votes)
A Rush Of Blood To The Head lessons Tabs too difficult? Try these video lessons and learn fast
                (Live)
=========================================================================
=============A RUSH OF BLOOD TO THE HEAD (LIVE 2003 Version)=============
=========================================================================


(This tab is a revised tab, I'm not the original author.)

Intro - with Slide (Reverb/Delay (for tone)/ Distortion)
e--------------------5------------------------5---------------------5------|
B------------7\5---------------------7\5-------------------7\5-------------|
G----------------------------5/7-------------------------------------------|
D----5/7--------------------------------------------5/7--------------------|
A--------------------------------------------------------------------------|
E--------------------------------------------------------------------------|

AFTER 1st VERSE (Reverb/Distortion)
e--------------------------------------------------------------------------|
B------------------------------------------12\5----------------------------|
G---12/14-----14\12------12/14------14\12--12\5----------------------------|
D--------------------------------------------------------------------------|
A--------------------------------------------------------------------------|
E--------------------------------------------------------------------------|

CHORUS (Distortion) (strum multiple times)
e--------------------------------------------------|
B------/10------/10*-----\10----/10*-----\3--------|
G--2---/10------/11*-----\10----/11*-----\3--------|
D--------------------------------------------------|
A--------------------------------------------------|
E--------------------------------------------------|

*Angle slide according to frets stated, it's important to do so or it won't sound correct

This is the part after the 1st Chorus =
(Distortion and Delay/Reverb)
e----------------------------------10----------|
B-----------------------------10-----10/-------|
G----2---------9/12----12\---------------------|
D----------------------------------------------|
A----------------------------------------------|
E----------------------------------------------|

Continued:
e-----------------17-17-17\15-15/17-----------------17-17-17\15-15/17\-----|
B-13\12---12/----------------------------17----12--------------------------|
G--------------------------------------------------------------------------|
D--------------------------------------------------------------------------|
A--------------------------------------------------------------------------|
E--------------------------------------------------------------------------|

e---------------------------------|
B-15--------17--------------------|
G-----------------17/////12-------|
D---------------------------------|
A---------------------------------|
E---------------------------------|


Where Jonny does that funny slide thing just slide up the fret board from the second 
up to the ninth and make some noise, no pick needed

Verse: (Distortion/Reverb)
e-----------------------------------------------------------------------------|
B-----------------------------------------------------------------------------|
G-----------------------------------------------------------------------2/10--|
D-------------7/5-----------7/5------------7/5-----------7/5--5/2--------/10--|
A-----5/7-----------5/7------------5/7------------5/7-------------------------|
E-----------------------------------------------------------------------------|

*Start of Chorus

OUTRO (strum multiple times) NO SLIDE, JUST USE FINGERS
(Delay/Reverb)
e--------------------------------------------|
B--13---\5---/12---\5------------------------|
G--14---\5---/12---\5--------Repeat----------|
D--------------------------------------------|
A--------------------------------------------|
E--------------------------------------------|

ENDING
(Delay/Reverb)
e--------------------------------------------------------------|
B--5-5-5-5-5-5-5-/7-7-7-\5-5-5-5-5-5-5-/7-7-7-\5---------------|
G--5-5-5-5-5-5-5-/7-7-7-\5-5-5-5-5-5-5-/7-7-7-\5---------------|
D--5-5-5-5-5-5-5-/7-7-7-\5-5-5-5-5-5-5-/7-7-7-\5---------------|
A--------------------------------------------------------------|
E--------------------------------------------------------------|
            
Submit corrections

comments powered by Disqus
↑ Back to top | Coldplay Tabs for A Rush Of Blood To The Head. Lyrics for acoustic guitar and electric guitar. Tablatures and chords are parodies/interpretations of the original songs. You may use it for private study, scholarship, research or language learning purposes only