>
 >
Forever Now

Forever Now Bass Tabs

Cold Chisel - Forever Now chords, tabs, tablatures, lyrics

Guitar lessons | Add/correct | Request | Top 50 tabs Artists:  A B C D E F G H I J K L M N O P Q R S T U V W X Y Z 0-9

Forever Now Bass Tabs – Cold Chisel

CD, Sheet music, Poster

Do you like Forever Now? Share with your friends now
Bass TabsTabs
Forever Now-Cold Chisel-Bass Cover

G-----------------------------------------------------------------------------------|
D-----------------------------------------------2----1-4-----2-6------------2-------|
A-0----2----4----4---0----2-----------2-1-00-04---2-2----44-4----44-4----0-0--0222--|
E------------------4-----------0-------------------------------------4-0----------2-|

INRTO                                     INTRO RIFF

G----------------------------6-------------------------|
D-----2-6------------2-----4--6----------------2-------|
A-44-4----44-4----0-0--0222----46-6-7-------0-0--0222--|
E-------------4-0--------------------7-04-4----------2-|

G-----------------------------------------------------------------------------------|
D-222----------222--------2~4-222---------------1-4-6-64-1-----2-6----4-7----6------|
A----2-------2----2--0-02--------2---------0-222----------2-444----555----444--0222-|
E-------0-04-------4---------------40-0-04------------------------------------------|

VERSE

G------------------------------------------------------------------------------------|
D-1-4-------------------------2---2~4-444-----2---2~4---------2---2~4-2--------------|
A-----2-00(0)-----00-----4--00-022-------4--00-022-------4--00-022-----4-42--------2-|
E-------------------4-222--2---------------2----------222--2----------------4-0-004--|

G---------------------------------------------------------------------------------|
D-2-2--------2~4-2-2----------2-2--------2~4-2---------------2-2--------2~4-2-2---|
A----2--0-02--------2--0-02------2--0-02------4-42---------2----2--0-02--------2--|
E-----4--------------4------2-----4----------------4-0-004-------4--------------4-|

CHORUS

G----------------------------------------------------------------------------------|
D--------4-4-----2---2~4-2---------------------2----1-4-----2-6------------2-------|
A-0-02-2----4--00-022-----4-42-------2-1-00-04---2-2----44-4----44-4----0-0--0222--|
E-------------2----------------4-0-00-------------------------------4-0----------2-|

                                         INTRO RIFF

G----------------------------6-------------------------|
D-----2-6------------2-----4--6----------------2-------|
A-44-4----44-4----0-0--0222----46-6-7-------0-0--0222--|
E-------------4-0--------------------7-04-4----------2-|

G-------------------------------------------------4-4-------------------------------|
D-----------------------7----9-----------------------4--------------4-7-----6-------|
A------------0~7(7)-----------7(7)--------------------2-44-4----55-5----44-4--022-2-|
E-0(0)----------------5--5~7-------------0~7(7)-------------4-0---------------------|

BRIDGE                                                  VERSE 2

G-------------------------------------------------------------------------------|
D-1-4-------------------------2---2~4-444-----2---2~4---------2---2~4-2---------|
A-----2-00(0)-----00-----4--00-022-------4--00-022-------4--00-022-----4-42-----|
E-------------------4-222--2---------------2----------222--2----------------4-0-|

G----------------------------------------------------------------------------------|
D------2-2--------2~4-2-2----------2-2--------2~4-2---------------2-2--------2~4-2-|
A----2----2--0-02--------2--0-02------2--0-02------4-42---------2----2--0-02-------|
E-004------4--------------4------2-----4----------------4-0-004-------4------------|

       CHORUS

G-------------------------------------------------------------|
D-2----------4-4-----2---2~4-2---------------2-2--------2~4-2-|
A--2--0-02-2----4--00-022-----4-42---------2----2--0-02-------|
E---4-------------2----------------4-0-004-------4------------|

       CHORUS

G----------------------------------------------------------------------------|
D-2----------4-4-----2---2~4-2---------------4-4-----2---2~4-2---------------|
A--2--0-02-2----4--00-022-----4-42---------2----4--00-022-----4-42-------2-1-|
E---4-------------2----------------4-0-004--------2----------------4-0-00----|

G----------------------------------------------------------------------6------------|
D-------2----1-4-----2-6------------2-----------2-6------------2-----4--6-----------|
A-00-04---2-2----44-4----44-4----0-0--0222--44-4----44-4----0-0--0222----46-6-7-----|
E----------------------------4-0----------2-------------4-0--------------------7-04-|

INTRO RIFF OUTRO

G------------------------|
D------2-----------------|
A---0-0--0222--4(4)------|
E-4----------2-----------|

(Let the last note ring out)

09/2010


It's my first TAB so I'm sorry if it's hard to read.

This is NOT 100% accurate!!! I wish it was but it took me about a year to learn by
ear so there's still stuff I need to learn.





Comments


Popular Cold Chisel tabs & chords
All For You 1 Chords
Bow River Chords
Khe Sahn 1 Chords
Khe Sahn 2 Chords
Saturday Night Chords
Shipping Steel Chords
Cheap Wine Tabs
Goodbye Astrid Goodbye Tabs
Khe Sanh Intro Tabs
Shipping Steel Ukulele


Song lyrics



↑ Back to top | Tablatures and chords are parodies/interpretations of the original songs. You may use it for private study, scholarship, research or language learning purposes only
© 2014 AZChords.com Contact us | Privacy policy | DMCA | Add/correct tabs | Request tabs | Top 50 tabs