» » »

Cold Chisel, Flame Trees Bass tabs (ver.1)

Artists:  A B C D E F G H I J K L M N O P Q R S T U V W X Y Z # 

Flame Trees Bass tabs (ver.1)

Cold Chisel Tabs
 Rating:
4/5 (4 votes)
Flame Trees lessons Tabs too difficult? Try these video lessons and learn fast
                FLAME TREES-COLD CHISEL-BASS TAB

G--------------------------68--------6-----------------------------------4-2------2/9-|
D---7-------9-------7------------------7-------9-------7----------------6-------------|
A------------7----------------7-----------------7----------44466--7-------------------|
E----------------------------------------------------------------7--------------------|

G-------------------------------4--4/9-------------------------2----------------------|
D--9/------7---9---6----7---7---------------------------------6--7---------7679-11/6--|
A----7-77--------------7--------------------2-00------0/7------------44466------------|
E------------------------------------------4------------------------------------------|

G-------------------------------------------------------------------------------------|
D-99-------------------------------------------------------------2--------------4-4-4-|
A-----0-----44--67-------0---2-------0---0---2---2/7------220-00--2-22-2-----2/4------|
E--------------------------------4--------------------------------------2-2-----------|

G--------------------------------------------------44---------------------------------|
D------2---4-4-2-2-2/99999999-----2--------------2---2--------------------------------|
A-0-00--2-2------------------0-00--2--2-2-4--4-4-------0-00-02-22-2-------------------|
E------------------------------------------------------------------0------------------|

G-2-----2/9----6---------14,13,11--9---6-6-9---------------------------------6--------|
D---------------9-6-7-------------------9---9-7----------------7-----79-------9-------|
A--------------------------------------------------44-67----------------77------77----|
E-------------------------------------------------------------------------------------|

G-------------------------------------------------------------------------------------|
D-997----79---------997-----7/--------------------------------------------------------|
A-----------77-----------------00-0/7-----77770-00-0------2-22-23-33-3------3---------|
E---------------------------------------------------4-44-4------------3-33-3--00-2-3--|

G---------------------------------------------------------------6---------------------|
D------------------------2--------------4-4-4------2---4-4-2-2---9-7-99------2--------|
A-----5-55-5777777770-00--2-22-2-----2/4------0-00--2-2-----------------0-00--2--2-2--|
E-33-3--------------------------2-2---------------------------------------------------|

G----------44-------------------------------------------------------------------------|
D--------2---2--------------------------------2--------------4-4-4------2---4-4-2-2---|
A-4--4-4-------0-00-02-22-2----0/777777770-00--2-22-2-----2/4------0-00--2-2----------|
E--------------------------0-0-----------------------2-2------------------------------|

G-6-----------------------------44----------------------------|
D--9-7-99------2--------------2---2---------------------------|
A---------0-00--2--2-2-4--4-4-------0-00-02-22-2----2---------|
E-----------------------------------------------0-0---0-------|

It might seem abit confusing to read but it's my second ever tab.





Cheers


Wookiee
            
Submit corrections

comments powered by Disqus
↑ Back to top | Cold Chisel Bass for Flame Trees. Lyrics for acoustic guitar and electric guitar. Tablatures and chords are parodies/interpretations of the original songs. You may use it for private study, scholarship, research or language learning purposes only