» » »

Makes Her Sick Tabs (ver.1)

Artists:  A B C D E F G H I J K L M N O P Q R S T U V W X Y Z # 

Makes Her Sick Tabs (ver.1)

Cold
Rating:
0/5 (0 votes)

Hard to play? Try these video lessons and learn fast.
                TUNING: Drop-D or lower

h=hammer on
p=pull off

Intro/Main Riff (Guitar 1)
e|-3-3-3-3-3-3-3-3-3-3-3-3-3-3-3-3-|-4-4-4-4-4-4-4-4-4-4-4-4-4-6-6-4-|
B|-------------------------------------------------------------------|
G|-------------------------------------------------------------------|
D|-------------------------------------------------------------------|
A|-------------------------------------------------------------------|
D|-------------------------------------------------------------------|

Cont.
e|-3-3-3-3-3-3-3-3-3-3-3-3-3-3-3-3-|-4-4-4-4-4-4-4-4-4-4-3h4p3-|
B|-------------------------------------------------------------|
G|-------------------------------------------------------------|
D|-------------------------------------------------------------|
A|-------------------------------------------------------------|
D|-------------------------------------------------------------|

Guitar 2 (listen to the CD for timing… timing is important)
e|-------------------------------------------------------------|
B|-------------------------------------------------------------|
G|-------------------------------------------------------------|
D|-5-5-x-5-5-5-x-5-5-5-x-5-5-5-5-5-5-6-6-x-6-6-6-x-6-6-6-6-8-6-|
A|-5-5-x-5-5-5-x-5-5-5-x-5-5-5-5-5-5-6-6-x-6-6-6-x-6-6-6-6-8-6-|
D|-5-5-x-5-5-5-x-5-5-5-x-5-5-5-5-5-5-6-6-x-6-6-6-x-6-6-6-6-8-6-|

that’s about it… I probably counted wrong on a few of the notes… just listen to the CD and you should be fine… 

enjoy!
            
Hard to play? Try these video lessons and learn fast. | Correct




comments powered by Disqus
↑ Back to top | Tablatures and chords are parodies/interpretations of the original songs. You may use it for private study, scholarship, research or language learning purposes only