>
 >
Just Got Wicked 5

Just Got Wicked 5 Guitar Tabs

Cold - Just Got Wicked 5 chords, tabs, tablatures, lyrics

Guitar lessons | Add/correct | Request | Top 50 tabs Artists:  A B C D E F G H I J K L M N O P Q R S T U V W X Y Z 0-9

Just Got Wicked 5 Guitar Tabs – Cold

CD, Sheet music, Poster

Do you like Just Got Wicked 5? Share with your friends now
Bass TabsBass Tabs v2TabsTabs v2Tabs v3Tabs v4Tabs v5
Artist - Cold
Song - Just Got Wicked acoustic
Tuning - 2 steps down, (low to high) C F Bb Eb G C

Intro/After chorus 1
---------------------------
--------5-5-5-5\4-4-4\3-3--
--------0-0-0-0-0-0-0-0-0--
--2-2----------------------
--2-2----------------------
--0-0----------------------

Verse
----------------------------------
----------------------------------
----------------------------------
--2-2--4-4-4-4-4-4/5--5-5/7--7-7--
--2-2--4-4-4-4-4-4/5--5-5/7--7-7--
--0-0--2-2-2-2-2-2/3--3-3/5--5-5--

Pre chorus 1
--------------------------
--------------------------
--------------------------
--2-2--X--X-X--X--X-X--X--
--2-2--X--X-X--X--X-X--X--
--0-0--X--X-X--X--X-X--X--

Chorus
--4--4-7--7--14--14-14-14-14-14-------7--7--14--14-14-14-14-14--
--x--x-x--x---x---x--x--x--x--x--5--5-x--x---x---x--x--x--x--x--
--2--2-5--5--12--12-12-12-12-12--x--x-5--5--12--12-12-12-12-12--
---------------------------------3--3---------------------------


Bridge 1
-2-2--x-2--2--2-x-2-2--x-2--2--x-x-2-2-x-x-x-x-x-x-x-2--2-x-x-2--
-2-2--x-2--2--2-x-2-2--x-2--2--x-x-2-2-x-x-x-x-x-x-x-2--2-x-x-2--
-0-0--x-0--0--0-x-0-0--x-0--0--x-x-0-0-x-x-x-x-x-x-x-0--0-x-x-0--
   
Bridge 2
------------------------------------
------------------------------------
------------------------------------
--2-2--7-7-7-7-7-7/8--8-8/10-10-10--
--2-2--7-7-7-7-7-7/8--8-8/10-10-10--
--0-0--5-5-5-5-5-5/6--6-6/-8--8--8--

Pre Outro
--------------
--------------
--4--7--------
--4--7--5--7--
--2--5--5--7--
--------3--5--

Outro
------5-5-------5-----7p5-------5-5-------5-----7p5-------5--
----3-----3---3-----3-----3---3-----3---3-----3-----3---3----
--4---------0-----4---------4---------0-----4---------4------
-------------------------------------------------------------
-------------------------------------------------------------
-------------------------------------------------------------

Intro/After Chorus 1 - 4x
Verse - 7x
Pre Chorus 1 - 1x
Chorus - 5x
Intro/After Chorus 1 - 4x
Verse - 8x
Bridge 1 - 1x
Chorus - 5x
Bridge 2 - 8x
Chorus - 5x
Pre Outro - 3x
Outro - 1x





Comments


Popular Cold tabs & chords
Cure My Tragedy 3 Bass Tabs
Superstar Bass Tabs
Whatever You Became 2 Bass Tabs
Confession 1 Tabs
End Of The World 2 Tabs
Flight Of The Superstar Tabs
Remedy 1 Tabs
Same Drug Tabs
Ugly Tabs
Witch 2 Tabs


Song lyrics



↑ Back to top | Tablatures and chords are parodies/interpretations of the original songs. You may use it for private study, scholarship, research or language learning purposes only
© 2014 AZChords.com Contact us | Privacy policy | DMCA | Add/correct tabs | Request tabs | Top 50 tabs