» » »

Goodbye Cruel World Tabs (ver.2)

Artists:  A B C D E F G H I J K L M N O P Q R S T U V W X Y Z # 

Goodbye Cruel World Tabs (ver.2)

Cold
Rating:
0/5 (0 votes)

Hard to play? Try these video lessons and learn fast.
                TUNING: Drop-D, maybe lower?

This TAB was all my own work.  I got it by ear off the cd.

Main Riff (no rhythm)
e|------------|
B|------------|
G|------------|
D|-0--3--1--0-|
A|-0--3--1--0-|
D|-0--3--1--0-|

Chorus
e|------------|
B|------------|
G|------------|
D|-8--7--3--2-|
A|-8--7--3--2-|
D|-8--7--3--2-|

Chorus (Guitar 2)
e|---8---|
B|-8---8-|
G|-------|
D|-------|
A|-------|
D|-------|

Verse thingy… (after second chorus)
e|-------------|
B|-------------|
G|-------------|
D|-8--7--3-2-0-|
A|-8--7--3-2-0-|
D|-8--7--3-2-0-|

enjoy!
            
Hard to play? Try these video lessons and learn fast. | Correct




comments powered by Disqus
↑ Back to top | Tablatures and chords are parodies/interpretations of the original songs. You may use it for private study, scholarship, research or language learning purposes only