» » »

Gone Away-Cold Tabs (ver.1)

Artists:  A B C D E F G H I J K L M N O P Q R S T U V W X Y Z # 

Gone Away-Cold Tabs (ver.1)

Cold
Rating:
0/5 (0 votes)

Hard to play? Try these video lessons and learn fast.
                Hey, this version I got from seeing them play it live. for the most part its correct. you might just wanna play around with terrys part behind the solo. i couldnt quite get that. have fun.

Cold - Gone Away

Tuning -- Straight C

Verse:

Terry:
|------------------------------0--|
|-----3-------3------3-------3--3-|
|---0-------0--0---0-------0--0---|
|--2-2----------2-2-2-------------|
|-0----0-2-3-3---0----0-2-3-0-----|
|---------------------------------|

Kelly:
|------------------------|
|------------------------|
|------------------------|
|------------------------|
|-15h17-13~-15h17/19-17~-|
|------------------------|

Chorus:

Terry:
|-----------------------------------|
|-----------------------------------|
|-----7-------10--------5-------4---|
|--7-7-7---10---10---5-5-5---4-4-4--|
|-5-5---5/8--8----8-3-3---3-2-2---2-|
|-----------------------------------|

Kelly:
|---15----15----15----15----15---15-|-----15-15----15-----15---------15----15----15-|
|-15----15----15----15----15---15---|---15-----15----15-----15-----15----15----15---|
|-----17----17----17----17---17-----|-17---------17----17-----17-15----14----17-----|
|-----------------------------------|-----------------------------------------------|
|-----------------------------------|-----------------------------------------------|
|-----------------------------------|-----------------------------------------------|

Solo:

Terry:
|--------------------------------------------|
|--------------------------------------------|
|--------------------------------------------|
|-7-14-9-10-9-10-9-5-4-4-5-7-14-9-10-9-10-12-|
|-7-14-9-10-9-10-9-5-4-4-5-7-14-9-10-9-10-12-|
|-5-12-7-8--7-8--7-3-2-2-3-5-12-7-8--7-8--11-|

Kelly:
|------------------------------------------------------------------|
|------------------------------------------------------------------|
|-5/12-7h8~-7-8/10-7-8-7-7-7-7-7-5-5-5-7/12-7h8-7-8-10-15^h17r15---|
|------------------------------------------------------------------|
|------------------------------------------------------------------|
|------------------------------------------------------------------|

|-15----------------------------------------15-------------|
|---15h16-15-16/18-15~-16-16-16-16-13-13-13---15h16/18-18^-|
|----------------------------------------------------------|
|----------------------------------------------------------|
|----------------------------------------------------------|
|----------------------------------------------------------|
            
Hard to play? Try these video lessons and learn fast. | Correct




comments powered by Disqus
↑ Back to top | Tablatures and chords are parodies/interpretations of the original songs. You may use it for private study, scholarship, research or language learning purposes only